FrontPage Music~Beatles

1. I will

http://www.beatlesbible.com/songs/i-will/
I was doing a song, I Will, that I had as a melody for quite a long time but I didn't have any lyrics to it. I remember sitting around with Donovan, and maybe a couple of other people. We were just sitting around one evening after our day of meditation and I played him this one and he liked it and we were trying to write some words. We kicked around a few lyrics, something about the moon, but they weren't very satisfactory and I thought the melody was better than the words so I didn't use them. I kept searching for better words and I wrote my own set in the end; very simple words, straight love-song words really. I think they're quite effective. It's still one of my favourite melodies that I've written. You just occasionally get lucky with a melody and it becomes rather complete and I think this is one of them; quite a complete tune. -- Paul McCartney Many Years From Now, Barry Miles

Youtube(3989jHX3sMQ) [http]I will, Alison Krauss in Youtube
Youtube(JGnNQM_9q-w) [http]I will, Paul McCartney in Youtube


1.1. I will in F maj key

I WILL- The Beatles

F Dm7 Gm7 C7
     F         Dm7        Gm7   C7     F      Dm        Am  F7      
Who knows how long I've loved you  You know I love you still Will I 
Bb      C7     Dm     F          Bb     C7    F   Dm7 Gm7 C7
wait a lonely lifetime  If you   want me to I will
     F    Dm7  Gm7   C7    F        Dm         Am  F7
For if I ever saw you      I didn't catch your name    But it 
Bb     C7     Dm     F         Bb    C7       F   F7
never really mattered I will   always feel the same

CHORUS:
Bb         C7    Dm7          Gm             C7      F   F7
Love you forever and forever  Love you with all my heart
Bb            C7  Dm7             G7                    C7
Love you whenever we're together  Love you when we're apart

      F      Dm7    Gm7   C7         F         Dm       Am  F7       
And when at last I find you     Your song will fill the air   Sing it 
Bb      C7    Dm Bb F       Bb  C7    Dm Bb F
loud so I can hear you  Make it easy to be near you

          Bb        C7   Dm       F     Bb       C7     Db7
For the things you do endear you to me  Ah, you know I will
   F  F7
I will
Bb    F/C C7 Dm7  Gm7 C7 F
La la la...

Db7: x x 3 4 2 4   F/C: x 3 3 2 1 1
Dm7: x x 0 2 1 1   Gm7: 3 5 3 3 6 3

(from The White Album, 1968)
(sent by Harlan at harlant@hawaii.edu)


1.2. I will in G maj key

I WILL- The Beatles

G Em7 Am7 D7
     G         Em7        Am7   D7     G      Em        Bm  G7      
Who knows how long I've loved you  You know I love you still Will I 
C       D7     Em     G          C      D7    G   Em7 Am7 D7
wait a lonely lifetime  If you   want me to I will
     G    Em7  Am7   D7    G        Em         Bm  G7
For if I ever saw you      I didn't catch your name    But it 
C      D7     Em     G         C     D7       G   G7
never really mattered I will   always feel the same

CHORUS:
C          D7    Em7          Am             D7      G   G7
Love you forever and forever  Love you with all my heart
C             D7  Em7             A7                    D7
Love you whenever we're together  Love you when we're apart

      G      Em7    Am7   D7         G         Em       Bm    G7       
And when at last I find you     Your song will fill the air   Sing it 
C       D7    Em C  G       C   D7    Em C  G
loud so I can hear you  Make it easy to be near you

          C        D7   Em       G      C       D7     Eb7
For the things you do endear you to me  Ah, you know I will
   G  G7
I will
C    G/D D7 Em7  Am7 D7 G
La la la...


1.3. I will in C maj key

IN C key 
C Am7 Dm7 G7
     C         Am7        Dm7   G7     C      Am        Em  C7      
Who knows how long I've loved you  You know I love you still Will I 
F      G7     Am     C           F      G7    C   Am7 Dm7 G7
wait a lonely lifetime  If you   want me to I will
     C    Am7  Dm7   G7    C        Am         Em  C7
For if I ever saw you      I didn't catch your name    But it 
F      G7     Am     C         F      G7       C   C7
never really mattered I will   always feel the same

CHORUS:
F          G7    Am7          Dm             G7      C   C7
Love you forever and forever  Love you with all my heart
F             G7  Am7             D7                    G7
Love you whenever we're together  Love you when we're apart

      C      Am7    Dm7   G7         C         Am       Em    C7       
And when at last I find you     Your song will fill the air   Sing it 
F       G7    Am F  C           F    G7    Am F  C
loud so I can hear you  Make it easy to be near you

          F         G7   Am       C     F        G7     G#7
For the things you do endear you to me  Ah, you know I will
   C  C7
I will
F    C/G G7 Am7  Dm7 G7 C
La la la...

Db7: x x 3 4 2 4   F/C: x 3 3 2 1 1
Dm7: x x 0 2 1 1   Gm7: 3 5 3 3 6 3

(from The White Album, 1968)
(sent by Harlan at harlant@hawaii.edu)



1.4. I will in E maj key

IN C key 
E C#m7 F#m7 B7
     E         C#m7      F#m7    B7     E      C#m         G#m  E7      
Who knows how long I've loved you  You know I love you still Will I 
A      B7     C#m    E           A      B7    E   C#m7 F#m7 B7
wait a lonely lifetime  If you   want me to I will
     E    C#m7  F#m7  B7   E        C#m         G#m    B7
For if I ever saw you      I didn't catch your name    But it 
A      B7     C#m     E        A      B7       E   E7
never really mattered I will   always feel the same

CHORUS:
A         G#7    C#m7          F#m           B7      E   E7
Love you forever and forever  Love you with all my heart
A           G#7  C#m7             F#7                    B7
Love you whenever we're together  Love you when we're apart

      E      C#m7   F#m7  B7         E         C#m       G#m  E7       
And when at last I find you     Your song will fill the air   Sing it 
A       B7    C#m A  E       A   B7    C#m A  E
loud so I can hear you  Make it easy to be near you

        A          B7   C#m       E     A        B7     C7
For the things you do endear you to me  Ah, you know I will
   E  E7
I will
A    E/A B7 C#m7  F#m7 B7 E
La la la...

Db7: x x 3 4 2 4   F/C: x 3 3 2 1 1
Dm7: x x 0 2 1 1   Gm7: 3 5 3 3 6 3

(from The White Album, 1968)
(sent by Harlan at harlant@hawaii.edu)



2. Black Bird

Youtube(rAR8csOqzKQ)
Youtube(LqtiEsCfsIU)
. . . . 


3. Hey Jude

    G                     D            D7                      G
Hey Jude    don't make it bad     take sad   song  and make it better
C                           G                            D7               G
Remember to let her into your heart     and then you can start to make it better
    G                 D                  D7                     G
Hey Jude    don't be afraid     you were made    to  go out and get her
     C                             G                  D7             G        G7
The minute you let her under your skin     then you begin to make it better

                         C        Em7   Am                          D7              G          G7
And anytime you feel the pain hey Jude  refrain     Don't carry the world upon your shoulder 
                         C       Em7     Am                      D7              G
For well you know that it's fool who plays it cool     by making his world  Dm little colder

Interlude: G7 - D7

     G                    D                D7                    G
Hey Jude    don't let me down     You have found  her now go and get her
   C                          G                     D7               G
Remember to let her into you heart     then you can start to make it better
                ?                     ?
better  better  better  better  better YAH!!!

G               F      C         C                    G 
Nah  Nah  Nah   Nah na Nah NAH   nah na nah NAH , Hey Jude!                                                            
G               F      C         C                    G 
Nah  Nah  Nah   Nah na Nah NAH   nah na nah NAH , Hey Jude!

....... fade out 


4. Norwegian Wood

4.1. Version 3

Norwegian Wood:Beatles. 
Top of charts in '65.
#1.
D
I once had a girl, or should I say
C	     D
she once had me.

She showed me her room, isn't it good?
C	  D
Norwegian wood.
    Dm                                  G
She asked my to stay and told me to sit anywhere,
   Dm	                                        Em   A A7
So I looked around and I noticed there wasn't a chair.
#2. 
D
I sat on a rug, biding my time,
C            D
drinking her wine.

We talked until two, and then she said,
C	      D
It's time for bed.
    Dm                                               G
She told me she worked in the morning and started to laugh,
  Dm	                                             Em  A A7
I told her I didn't, and crawled off to sleep in the bath.
#3. 
D                              C             D
And when I awoke, I was alone, this bird has flown.

So I lit a fire, isn't it good?
C	  D   C D C Dm7 D
Norwegian wood.

REPEAT#3.

A sixties smash from Kraziekhat

4.2. version 1

#

#----------------------------------PLEASE NOTE---------------------------------#
#This file is the author's own work and represents their interpretation of the #
#song. You may only use this file for private study, scholarship, or research. #
#------------------------------------------------------------------------------##
Date: Wed, 23 Aug 1995 18:06:42 -0400 (EDT)
From: Douglas French 
Subject: TAB: Norwegian Wood



Yet another TAB of Norwegian Wood (This Bird Has Flown) along with
2 corrections to the existing TABs of the song.  I have included
the existing TABs in their entirety and unedited for reference.

=============================================================================
Title:       Norwegian Wood (This Bird Has Flown)
Composers:   John Lennon and Paul McCartney
Group:       The Beatles
Album:       Rubber Soul
Arrangement: Doug French, dfrench@site.gmu.edu
 
capo: 2nd fret
time: 12/8

Intro, play 2 times:

  #1  D
E ||------2-2-2-------------------2-2-2----------------|
B ||--3---3-3-3---3---3---3-------3-3-3-------3--------|
G ||--2---2-2-2---4---2---0---2---2-2-2---0---0---2----|
D ||--0-----------------------4-----------2-------4----|
A ||---------------------------------------------------|
E ||---------------------------------------------------|
      +   .   .   +   .   .   +   .   .   +   .   .


      D           C       G   D
E  |------2-2-2-------------------2-2-2-2-----2--------||
B  |--3---3-3-3-------3-------3---3-3-3-3-----3--------||
G  |--2---2-2-2-------0-------2---2-2-2-2-2---2--------||
D  |--0-------------------0---0-----------0------------||
A  |--------------3-------2---0------------------------||
E  |---------------------------------------------------||
      +   .   .   +   .   .   +   .   .   +   .   .


Use same guitar pattern under solo voice:

  #4  D
E ||------2-2-2-------------------2-2-2----------------|
B ||--3---3-3-3---3---3---3-------3-3-3-------3--------|
G ||--2---2-2-2---4---2---0---2---2-2-2---0---0---2----|
D ||--0-----------------------4-----------2-------4----|
A ||---------------------------------------------------|
E ||---------------------------------------------------|
      +   .   .   +   .   .   +   .   .   +   .   .
   1. I          once had a   girl,       or should I
   2. (Instrumental) ....

      D           C       G   D
E  |------2-2-2-------------------2-2-2-2-----2--------|
B  |--3---3-3-3-------3-------3---3-3-3-3-----3--------|
G  |--2---2-2-2-------0-------2---2-2-2-2-2---2--------|
D  |--0-------------------0---0-----------0------------|
A  |--------------3-------2---0------------------------|
E  |---------------------------------------------------|
      +   .   .   +   .   .   +   .   .   +   .   .
      say,       she once had me;
      ....

      D
E  |------2-2-2-------------------2-2-2----------------|
B  |--3---3-3-3---3---3---3-------3-3-3-------3--------|
G  |--2---2-2-2---4---2---0---2---2-2-2---0---0---2----|
D  |--0-----------------------4-----------2-------4----|
A  |---------------------------------------------------|
E  |---------------------------------------------------|
      +   .   .   +   .   .   +   .   .   +   .   .
      She      showed me her  room,       is- n't it
      ...

      D           C       G   D
E  |------2-2-2-------------------2-2-2-2--------------|
B  |--3---3-3-3-------3-------3---3-3-3-3-----3--------|
G  |--2---2-2-2-------0-------2---2-2-2-2-2---2--------|
D  |--0-------------------0---0-----------0-------0----|
A  |--------------3-------2---0------------------------|
E  |---------------------------------------------------|

      +   .   .   +   .   .   +   .   .   +   .   .
      good        Nor-we-gian wood.               She
      ...                                         She


      Dm
E  |--1---1-1-1---1---0-0-0---0------------------------|
B  |--3---3-3-3---3---3-3-3---3---3-3-3----------------|
G  |--2---2-2-2---2---0-0-0---0---2-2-2---2---0---2----|
D  |--0-----------0-----------0-----------3---0---3----|
A  |--0-----------0-----------0------------------------|
E  |---------------------------------------------------|
      +   .   .   +   .   .   +   .   .   +   .   .
    asked me  to stay and she told me to  sit an- y -
    told me she worked in the morning and started to


      G
E  |--3---3-3-3-3-----3-3-3-3-----3-3-3-3-----3--------|
B  |--3---3-3-3-3-----3-3-3-3-----3-3-3-3-----3--------|
G  |--0---0-0-0-0-----0-0-0-0-----0-0-0-0-----0--------|
D  |--0---0-0-0-0-0---0-0-0-0-----0-0-0-0-0---0--------|
A  |--2-------------------------------------------0----|
E  |--3-----------------------3------------------------|
      +   .   .   +   .   .   +   .   .   +   .   .
     where.                                       So
     laugh.                                       I


      Dm
E  |--1---1-1-1---1---0-0-0---0------------------------|
B  |--3---3-3-3---3---3-3-3---3---3-3-3----------------|
G  |--2---2-2-2---2---0-0-0---0---2-2-2---2---0---2----|
D  |--0-----------0-----------0-----------3---0---3----|
A  |--0-----------0-----------0-----------0------------|
E  |---------------------------------------------------|
      +   .   .   +   .   .   +   .   .   +   .   .
     I looked a round and I noticed there was-n't  a
     told her I did-n't and crawled off to sleep in the


      Em7                     A7
E  |--0---0-0-0-0-----0-----0-0---0-0-0-0-0----------|
B  |--3---3-3-3-3-----3-----3-2---2-2-2-2-2----------|
G  |--0---0-0-0-0-----0-----0-0---0-0-0-0-0----------|
D  |--2---2-2-2-2-2-----------2---2-2-2-2-2----------|
A  |--2-----------2-----------0-----------0----------|
E  |-------------------------------------------------|
      +   .   .   +   .   .   +   .   .   +   .   .
      chair.
      bath.


Use same guitar pattern as in measure #4 above:

      D
   1. I           sat on  a   rug,        bid-ing my
   2. And,       when I   a - woke,       I   was a-


      D           C       G   D
      time,      drinking her wine.
      lone,     this bird had flown.


      D
      We        talked un-til two,       and then she
      So,         I   lit a   fire,       is- n't it


      D           C       G   D
      said      "It's time for bed."
      good        Nor-we-gian wood.


Repeat from measure #4 above.

Ending:

      D
E ||---------------------------------------------------|
B ||--3---3-3-3---3---3---3-------3-3-3-------3--------|
G ||--2---2-2-2---4---2---0---2---2-2-2---0---0---2----|
D ||--0-----------------------4-----------2-------4----|
A ||---------------------------------------------------|
E ||---------------------------------------------------|
      +   .   .   +   .   .   +   .   .   +   .   .


      D           C       G   D
E  |---------------------------------------------------||
B  |--3---3-3-3-------3-------3------------------------||
G  |--2---2-2-2-------0-------2------------------------||
D  |--0-------------------0---0------------------------||
A  |--------------3-------2---0------------------------||
E  |---------------------------------------------------||
      +   .   .   +   .   .   +   .   .   +   .   .



=============================================================================
=============================================================================
Corrections to existing TABS:

1)  Richard Cook's TAB (in D, capo on 2nd fret) lists the chords of the
    bridge as:

    Dm         G
    She ... anywhere
    Dm         G     A
    I   ...    chair.

    which contains 2 errors. To be played in D the chords should be:

    Dm         G
    She ... anywhere
    Dm         Em7  A7
    I   ...    chair.

2)  Robert Hall's TAB (in E) lists the chords of the bridge as:

    Am         D
    She ... anywhere
    Am         D     F#
    I   ...    chair ---> verse (E riff above)

    which are in the wrong key.  To be played in E the chords should be:

    Em         A
    She ... anywhere
    Em         Fm7   B7
    I   ...    chair.

=============================================================================
Existing TABs:
=============================================================================

Date: Sun, 20 Aug 1995 09:18:02 -0700
From: rwcook@ix.netcom.com (Richard Cook )
Subject: TAB: Norwegian Wood by The Beatles

                            Norwegian Wood
                                                                 The Beatles

Tabbed by Richard Cook


Capo 2nd fret.


     D                                                               D    D
E ||-2----2------2---2---2--2--2------------------2------------------2----0h2-|
B ||-3----3------3---3---3--3--3------------------3--------3---------3----3---|
G ||-2----4------2---0---0--0--0-------0----------2--------0---------2----2---|
D |--0----0------0---0---4--4--4---2----------4---0------------------0----0---|
A ||-0-------------------------------------------------3--------2----0----0---|
E ||--------------------------------------------------------------------------|



     D                                                               D    D
E |--2----2------2---2---2--2--2------------------2------------------2----0h2-|
B |--3----3------3---3---3--3--3------------------3--------3---------3----3---|
G |--2----4------2---0---0--0--0-------0----------2--------0---------2----2---|
D |--0----0------0---0---4--4--4---2----------4---0--------0---------0----0---|
A |--0-------------------------------------------------3--------2----0----0---|
E |---------------------------------------------------------------------------|
     I    once had a     girl,     or  should I   say, she once had me.



     D                                                               D    D
E |--2----2------2---2---2--2--2------------------2------------------2----0h2-|
B |--3----3------3---3---3--3--3------------------3--------3---------3----3---|
G |--2----4------2---0---0--0--0-------0----------2--------0---------2----2---|
D |--0----0------0---0---4--4--4---2----------4---0--------0---------0----0---|
A |--0-------------------------------------------------3--------2----0----0---|
E |---------------------------------------------------------------------------|
     She  showed me  her room,     is  n't    it  good nor-we - gian wood.


bridge
           Dm                                            G
E |--------1---------------------------------------------3--------------------|
B |--------3---------------------------------------------0--------------------|
G |--------2---------------------------------------------0--------------------|
D |--------0---------------------------------------------0--------------------|
A |--------0---------------------------------------------2--------------------|
E |------------------------------------------------------3--------------------|
      She  asked me to stay and she told me to sit any - where.


   Dm                                           G              A
|--1--------------------------------------------3--------------0------------|
|--3--------------------------------------------0--------------2------------|
|--2--------------------------------------------0--------------2------------|
|--0--------------------------------------------0--------------2------------|
|--0--------------------------------------------2--------------0------------|
|-----------------------------------------------3---------------------------|
   I looked around and I noticed there wasn't a chair.



I sat on a rug, biding my time
    drinking her wine.
We talked until two, and then she said
    it's time for bed.

[repeat 1st measure]

She told me she worked in the morning
    and started to laugh.
I told her I didn't
    and crawled off to sleep in the bath.

And, when I awoke, I was alone
    this bird had flown.
So, I lit a fire, isn't it good
    Norwegian wood.

[repeat 1st measure]


notes:
1.  Spacing doesn't indicate timing - I just lined the tab up with the lyrics.
2.  Chords are tabbed for their first beat only.  The D chord is strummed down,
    up, down.  Note the hammer-on at the end of each measure.
3.  Holding the D chord, use your pinky for 3rd fret notes and index finger
    for 1st fret notes, middle finger for 3rd fret on the A string.
4.  Have an accompanist play along without a capo:
     E     D     E     D    [bridge]  Em    A    Em     A   B

--mxrangnjfumchebcqtfmbcrosshkmp--


=============================================================================

From: rh34+@andrew.cmu.edu (Robert R. Hall)
Subject: Alternate TAB: Norwegian Wood
Date: 6 Aug 92 16:22:34 GMT

This song is in E; you can play it in D with a capo, but
I don't have one, so I figured out this version.  It lets
you play the rhythm and lead guitar parts at the same time:

e --0---0---0---0---0---x---x---x---0---x---x---x---0----------
B --0---2---0---0---0---0---0---0---0---0---0---0---0----------
G --1---1---1---2---1---2---2---0---1---2---2---2---1----------
D --2---2---2---2---2---4---4---4---2---0---0---0---2----------
A --2---2---2---2---2---0---0---0---2---4---4---4---2----------
E --0---2---0---2---0---x---x---x---0---x---x---x---0----------
|
|   I  once had a  girl or shld I  say she once had me
-> (c)  B   (c) G  (c)  D   G   G  (c)  D   G    A  (c)   
         

Accent the string listed below the word to bring out
the melody. (c) means accent the whole chord.  Use your
smallest finger to hit the notes during "I once had a girl."

Chorus
------
Am                                             D
She asked me to stay and she told me to sit anywhere

Am                                            D     F# 
I looked around and I noticed there wasn't a chair ---> verse (E riff above)

----------------------------
I'm not sure of the complete lyrics, they're pretty clear
on the album (Rubber Soul)

Bob

=============================================================================



Date: Thu, 20 Jun 1996 20:55:37 -0400
From: Laurence Watson 


	This is the song Norwegian Wood, by the Beatles.
	The song appeared on the Rubber Soul album, released
	in 1965.  Here it is:


|-----------2--------2--------|-----------------2---2-------|
|-----------3--------3--------|-----------------3---3-------|
|----2------2--------2--------|--2h4--2--0------2---2-------|
|-----------0--------0--------|-------------4---0---0-------|
|-----------0--------0--------|-----------------0---0-------|
|-----------------------------|-----------------------------|


|-----------------2---2-------|------------2--2--2--2--2--2-|
|-----------------3---3-------|------------3--3--3--3--3--3-|
|------0----------2---2-------|----0-------2--2--2--2--2--2-|
|---2-----4---0---0---0-------|------------0--0--0--0--0--0-|
|-----------------0---0-------|--3---2--0--0--0--0--0--0--0-|
|-----------------------------|-----------------------------|


|----1---1---1----1---0-------|----0------------------------|
|----3------------3-------3---|----3---3---1-----1---3---1--|
|----2------------2-----------|----2-------------0----------|
|----0------------0-----------|----0-------------2----------|
|-----------------------------|------------------3----------|
|-----------------------------|-----------------------------|

	  
	(strum a few times)
|-----------------------------|----1---1---1----1---0-------|
|----3------------------------|----3------------3-------3---|
|----0------------------------|----2------------2-----------|
|----0------------------------|----0------------0-----------|
|----2------------------------|-----------------------------|
|----3------------------------|-----------------------------|

                              (strum a little)(strum a little)
|----0------------------------|------0-------|-------0------|
|----3---3---1-----1---3---1--|------3-------|-------2------|
|----2-------------0----------|------0-------|-------0------|
|----0-------------2----------|------2-------|-------2------|
|------------------3----------|------0-------|-------0------|
|-----------------------------|--------------|--------------| (then back to verse)



LYRICS:    I once had a girl, or should I say, she once had me.
	   She showed me her room.  Isn't it good, Norwegian Wood?

	   She asked me to stay, and she told me to sit anywhere.
	   So I looked around, and I noticed there wasn't a chair.

	   I sat on a rug, biding my time, drinking her wine.
	   We talked until two, and then she said, it's time for bed.

	   She told me she worked in the morning and started to laugh.
	   I told her I didn't and crawled off to sleep in the bath.

	   And, when I awoke, I was alone.  This bird had flown.
	   So, I lit a fire.  Isn't it good, Norwegian Wood?

		       --------------------------
		

		The sitar is the actual instrument used by
		George Harrison to play this song.  It is
		the first Beatle's song where it is present. 
		

						- Stuart Watson

--------------27A36151D
Content-Type: text/plain; charset=us-ascii; name="submitting.txt"
Content-Transfer-Encoding: 7bit
Content-Disposition: inline; filename="submitting.txt"

              .oooooo.   ooooo          .oooooo.          .o.
             d8P'  `Y8b  `888'         d8P'  `Y8b        .888.
            888      888  888         888               .8"888.
            888      888  888         888              .8' `888.
            888      888  888         888     ooooo   .88ooo8888.
            `88b    d88'  888       o `88.    .88'   .8'     `888.
             `Y8bood8P'  o888ooooood8  `Y8bood8P'   o88o     o8888o



	HOW TO SUBMIT FILES TO OLGA (THE ON-LINE GUITAR ARCHIVE)
	::::::::::::::::::::::::::::::::::::::::::::::::::::::::

	OLGA, the On-Line Guitar Archive, is a natural development of
the guitar.tab newsgroups. The Archive provides a library of files that 
is more permanent than usenet and is easily accessible, and attempts to 
prevent repetition of work already done by the community.

	If you can educate others in how to play a song, type up
the chords and/or tab and/or playing tip and send it to both the 
newsgroups *AND* the archive, and contribute to the community. 

It's very simple:

Step 1:		Before you submit, make sure of the following:
Final		That you have included the song name, artist's name
Preparations	and your own name (and if different, the transciber's name)

		If you can, include other information such as the name
		of the album from which the track comes, the name of the
		author of the words and music, details of the publisher
		and catalogue number, and notes on what effects are used
		and on how to play the music.

		Make sure that the file is 'all your own work'. If you
		use copyrighted material, it won't (knowingly) be 
		archived. 

		You should also check the archive to ensure that you
		are not duplicating material already there. If a chord
		or tab file already exists for the song, take it down
		and incorporate your material with it. Always credit
		the original author and mention what each of you has
		done. If the file is anonymous at the archive, you 
		should nonetheless state that you used material from 
		the archive, and if practicable, disclaim credit for 
		the portions used.

Step 2:		The simplest method of submitting for all concerned is 
Submitting	simply to email it to guitar@nevada.edu  Use a subject 
		line of the same form as you post to news, i.e.
		TAB:  by 

		Alternatively, you can use ftp. If you don't know how, 
		read the FAQ file posted to the guitar.tab newsgroups by 
		Ryan Harding called 'The Ultimate Guide to the Tab Archives'.
		Use the 'put' command during an ftp session to 
			ftp.nevada.edu/pub/guitar/incoming
		Please follow the instructions in the file READ_BEFORE_PUTTING
		N.B.: You can submit by ftp to the *nevada site only*. 
		There are incoming directories at some of the other OLGA 
		sites (for different purposes), but if you upload tab or 
		chords to those sites they won't be archived at *any* site.

Step 3:		Files are processed and archived manually, so it can take
Checking	anywhere from 30 seconds to 2 weeks to archive your file.
		In practice, it never takes more than a week, so you can start
		checking if your file is at OLGA 4-7 days after submission.
		Note that the file filters down through the sites, and this
		may also take some time
		The best way to check is to read the INFO file posted to 
		the guitar.tab newsgroups every Monday called 'OLGA WEEKLY 
		INDEX'. The indexes are for the second previous week, so
		if the name of your file does not appear on this list 
		one of the *three* Monday's after you submit it, contact 
		guitar@nevada.edu and inquire politely as to its whereabouts.
		You can receive the WEEKLY INDEX and other OLGA notices by 
		email. Write to rcwoods@alf2.tcd.ie to have your name added.

Your file at OLGA:
Any file archived becomes the property of the archive in so far as
material extraneous to the musical content (the header and .sig) may
be removed or edited. The author's name and e-mail address will always 
be retained if accompanying the file, along with any other information 
the archivists deem relevant.
The archivists retain the right to modify or remove files as they see fit.
In cases of duplication of a song, the archivists may remove a 
transcription of inferior quality. 
Copyright of work remains with the author of that work. Posting to usenet 
or to the archive implicitly gives permission for fair-use distribution.
Requests to have files removed or modified should be made to the
archivists by e-mail to guitar@nevada.edu.


Additions/corrections to this file welcomed.
Pete Palmer     ppalmer@cray.com
cal woods       rcwoods@scrg.cs.tcd.ie
Ryan Harding    rkh2@ukc.ac.uk
Dean Gaudet     dgaudet@cs.ubc.ca

--------------27A36151D--


From lrw@virginia.edu Thu Jun 20 04:35:05 1996
Received: from post-office.nevada.edu (post-office.nevada.edu [131.216.1.11]) by mailhost.tcs.tulane.edu (8.6.12/8.5) with ESMTP id XAA28168; Wed, 19 Jun 1996 23:35:03 -0500
Received: from virginia.edu (mars.itc.Virginia.EDU [128.143.2.9]) by post-office.nevada.edu (8.6.12/8.6.4) with SMTP id VAA22609 for ; Wed, 19 Jun 1996 21:32:22 -0700
Received: from avery.med.virginia.edu by mail.virginia.edu id aa11137;
          20 Jun 96 0:32 EDT
Received: from UROLOGY.Virginia.EDU (slip-23-7.itc.Virginia.EDU [128.143.3.67]) by avery.med.Virginia.EDU (8.7.1/8.6.6) with SMTP id AAA27079 for ; Thu, 20 Jun 1996 00:32:17 -0400
Message-ID: <31C8D44E.1A9B@virginia.edu>
Date: Thu, 20 Jun 1996 00:32:15 -0400
From: Laurence Watson 
X-Mailer: Mozilla 3.0b4 (Win95; I)
MIME-Version: 1.0
To: guitar@nevada.edu
Subject: MONEY
Content-Type: multipart/mixed; boundary="------------32E24A777925"
X-email-warning: As a cautionary note, there have been recent instances of
	people forging mail addresses. If you have any reason to believe
	this message is not authentic, please contact the listed sender or
	System Computing Services at (702) 895-4585.
Status: RO

This is a multi-part message in MIME format.

--------------32E24A777925
Content-Type: text/plain; charset=us-ascii
Content-Transfer-Encoding: 7bit

Dear guitar@nevada.edu,
		My name is Stuart Watson, and I would like to submit a tabbed-out 
version of the song Money, by Pink Floyd, to you.  So, here it is:
-----------------------------------------------------------------------------------
From: lrw@virginia.edu (Stuart Watson)

	Here's the tablature for the song Money, by Pink Floyd.  The song appeared 
	on the album The Dark Side of the Moon, released in 1973.  Roger Waters 
	wrote and sang the song.  Here it is:

 (repeat this many times)        (then...)
|--------------------------|--------------------------|--------------------------||--------------------------|--------------------------|--------------------------||----4---------------------|--------------------------|--------------------------||-------4---------------0--|-----4--------------4--3--|---2--------------------0-||--2-------2-----0--2------|-------4------0--4--------|------2-----------0--2----||-------------2------------|--2------2--2-------------|----------0---3-----------|							(then back to first riff)


SOLOS:
 
(play this for a little bit)       (then this)                (then this) 
|--------------------------|--------------------------|--------------------------||--------------------------|--------------------------|--------------------------||--------------------------|-----4----7----6----5-----|--------------------------||-----4----7----6----5-----|-----2----5----4----3-----|-----4----7----6----5-----||-----2----5----4----3-----|--------------------------|-----2----5----4----3-----||--------------------------|--------------------------|--------------------------|
      (and then this)           (and finally this)         
|--------------------------|--------------------------|       
|--------------------------|--------------------------|
|--------------------------|--4--2--------------------|
|--------------------------|-------5--4--2------------|
|-----4----7----6----5-----|----------------5--4--3-2-|
|-----2----5----4----3-----|--------------------------|



		To get the song completely right, and know what order 
		to play it in, I'd listen to it.



							- Stuart Watson

--------------32E24A777925
Content-Type: text/plain; charset=us-ascii; name="norwegian_wood.tab"
Content-Transfer-Encoding: 7bit
Content-Disposition: inline; filename="norwegian_wood.tab"

#----------------------------------PLEASE NOTE---------------------------------#
#This file is the author's own work and represents their interpretation of the #
#song. You may only use this file for private study, scholarship, or research. #
#------------------------------------------------------------------------------##
Date: Wed, 23 Aug 1995 18:06:42 -0400 (EDT)
From: Douglas French 
Subject: TAB: Norwegian Wood



Yet another TAB of Norwegian Wood (This Bird Has Flown) along with
2 corrections to the existing TABs of the song.  I have included
the existing TABs in their entirety and unedited for reference.

=============================================================================
Title:       Norwegian Wood (This Bird Has Flown)
Composers:   John Lennon and Paul McCartney
Group:       The Beatles
Album:       Rubber Soul
Arrangement: Doug French, dfrench@site.gmu.edu
 
capo: 2nd fret
time: 12/8

Intro, play 2 times:

  #1  D
E ||------2-2-2-------------------2-2-2----------------|
B ||--3---3-3-3---3---3---3-------3-3-3-------3--------|
G ||--2---2-2-2---4---2---0---2---2-2-2---0---0---2----|
D ||--0-----------------------4-----------2-------4----|
A ||---------------------------------------------------|
E ||---------------------------------------------------|
      +   .   .   +   .   .   +   .   .   +   .   .


      D           C       G   D
E  |------2-2-2-------------------2-2-2-2-----2--------||
B  |--3---3-3-3-------3-------3---3-3-3-3-----3--------||
G  |--2---2-2-2-------0-------2---2-2-2-2-2---2--------||
D  |--0-------------------0---0-----------0------------||
A  |--------------3-------2---0------------------------||
E  |---------------------------------------------------||
      +   .   .   +   .   .   +   .   .   +   .   .


Use same guitar pattern under solo voice:

  #4  D
E ||------2-2-2-------------------2-2-2----------------|
B ||--3---3-3-3---3---3---3-------3-3-3-------3--------|
G ||--2---2-2-2---4---2---0---2---2-2-2---0---0---2----|
D ||--0-----------------------4-----------2-------4----|
A ||---------------------------------------------------|
E ||---------------------------------------------------|
      +   .   .   +   .   .   +   .   .   +   .   .
   1. I          once had a   girl,       or should I
   2. (Instrumental) ....

      D           C       G   D
E  |------2-2-2-------------------2-2-2-2-----2--------|
B  |--3---3-3-3-------3-------3---3-3-3-3-----3--------|
G  |--2---2-2-2-------0-------2---2-2-2-2-2---2--------|
D  |--0-------------------0---0-----------0------------|
A  |--------------3-------2---0------------------------|
E  |---------------------------------------------------|
      +   .   .   +   .   .   +   .   .   +   .   .
      say,       she once had me;
      ....

      D
E  |------2-2-2-------------------2-2-2----------------|
B  |--3---3-3-3---3---3---3-------3-3-3-------3--------|
G  |--2---2-2-2---4---2---0---2---2-2-2---0---0---2----|
D  |--0-----------------------4-----------2-------4----|
A  |---------------------------------------------------|
E  |---------------------------------------------------|
      +   .   .   +   .   .   +   .   .   +   .   .
      She      showed me her  room,       is- n't it
      ...

      D           C       G   D
E  |------2-2-2-------------------2-2-2-2--------------|
B  |--3---3-3-3-------3-------3---3-3-3-3-----3--------|
G  |--2---2-2-2-------0-------2---2-2-2-2-2---2--------|
D  |--0-------------------0---0-----------0-------0----|
A  |--------------3-------2---0------------------------|
E  |---------------------------------------------------|

      +   .   .   +   .   .   +   .   .   +   .   .
      good        Nor-we-gian wood.               She
      ...                                         She


      Dm
E  |--1---1-1-1---1---0-0-0---0------------------------|
B  |--3---3-3-3---3---3-3-3---3---3-3-3----------------|
G  |--2---2-2-2---2---0-0-0---0---2-2-2---2---0---2----|
D  |--0-----------0-----------0-----------3---0---3----|
A  |--0-----------0-----------0------------------------|
E  |---------------------------------------------------|
      +   .   .   +   .   .   +   .   .   +   .   .
    asked me  to stay and she told me to  sit an- y -
    told me she worked in the morning and started to


      G
E  |--3---3-3-3-3-----3-3-3-3-----3-3-3-3-----3--------|
B  |--3---3-3-3-3-----3-3-3-3-----3-3-3-3-----3--------|
G  |--0---0-0-0-0-----0-0-0-0-----0-0-0-0-----0--------|
D  |--0---0-0-0-0-0---0-0-0-0-----0-0-0-0-0---0--------|
A  |--2-------------------------------------------0----|
E  |--3-----------------------3------------------------|
      +   .   .   +   .   .   +   .   .   +   .   .
     where.                                       So
     laugh.                                       I


      Dm
E  |--1---1-1-1---1---0-0-0---0------------------------|
B  |--3---3-3-3---3---3-3-3---3---3-3-3----------------|
G  |--2---2-2-2---2---0-0-0---0---2-2-2---2---0---2----|
D  |--0-----------0-----------0-----------3---0---3----|
A  |--0-----------0-----------0-----------0------------|
E  |---------------------------------------------------|
      +   .   .   +   .   .   +   .   .   +   .   .
     I looked a round and I noticed there was-n't  a
     told her I did-n't and crawled off to sleep in the


      Em7                     A7
E  |--0---0-0-0-0-----0-----0-0---0-0-0-0-0----------|
B  |--3---3-3-3-3-----3-----3-2---2-2-2-2-2----------|
G  |--0---0-0-0-0-----0-----0-0---0-0-0-0-0----------|
D  |--2---2-2-2-2-2-----------2---2-2-2-2-2----------|
A  |--2-----------2-----------0-----------0----------|
E  |-------------------------------------------------|
      +   .   .   +   .   .   +   .   .   +   .   .
      chair.
      bath.


Use same guitar pattern as in measure #4 above:

      D
   1. I           sat on  a   rug,        bid-ing my
   2. And,       when I   a - woke,       I   was a-


      D           C       G   D
      time,      drinking her wine.
      lone,     this bird had flown.


      D
      We        talked un-til two,       and then she
      So,         I   lit a   fire,       is- n't it


      D           C       G   D
      said      "It's time for bed."
      good        Nor-we-gian wood.


Repeat from measure #4 above.

Ending:

      D
E ||---------------------------------------------------|
B ||--3---3-3-3---3---3---3-------3-3-3-------3--------|
G ||--2---2-2-2---4---2---0---2---2-2-2---0---0---2----|
D ||--0-----------------------4-----------2-------4----|
A ||---------------------------------------------------|
E ||---------------------------------------------------|
      +   .   .   +   .   .   +   .   .   +   .   .


      D           C       G   D
E  |---------------------------------------------------||
B  |--3---3-3-3-------3-------3------------------------||
G  |--2---2-2-2-------0-------2------------------------||
D  |--0-------------------0---0------------------------||
A  |--------------3-------2---0------------------------||
E  |---------------------------------------------------||
      +   .   .   +   .   .   +   .   .   +   .   .



=============================================================================
=============================================================================
Corrections to existing TABS:

1)  Richard Cook's TAB (in D, capo on 2nd fret) lists the chords of the
    bridge as:

    Dm         G
    She ... anywhere
    Dm         G     A
    I   ...    chair.

    which contains 2 errors. To be played in D the chords should be:

    Dm         G
    She ... anywhere
    Dm         Em7  A7
    I   ...    chair.

2)  Robert Hall's TAB (in E) lists the chords of the bridge as:

    Am         D
    She ... anywhere
    Am         D     F#
    I   ...    chair ---> verse (E riff above)

    which are in the wrong key.  To be played in E the chords should be:

    Em         A
    She ... anywhere
    Em         Fm7   B7
    I   ...    chair.

=============================================================================
Existing TABs:
=============================================================================

Date: Sun, 20 Aug 1995 09:18:02 -0700
From: rwcook@ix.netcom.com (Richard Cook )
Subject: TAB: Norwegian Wood by The Beatles

                            Norwegian Wood
                                                                 The Beatles

Tabbed by Richard Cook


Capo 2nd fret.


     D                                                               D    D
E ||-2----2------2---2---2--2--2------------------2------------------2----0h2-|
B ||-3----3------3---3---3--3--3------------------3--------3---------3----3---|
G ||-2----4------2---0---0--0--0-------0----------2--------0---------2----2---|
D |--0----0------0---0---4--4--4---2----------4---0------------------0----0---|
A ||-0-------------------------------------------------3--------2----0----0---|
E ||--------------------------------------------------------------------------|



     D                                                               D    D
E |--2----2------2---2---2--2--2------------------2------------------2----0h2-|
B |--3----3------3---3---3--3--3------------------3--------3---------3----3---|
G |--2----4------2---0---0--0--0-------0----------2--------0---------2----2---|
D |--0----0------0---0---4--4--4---2----------4---0--------0---------0----0---|
A |--0-------------------------------------------------3--------2----0----0---|
E |---------------------------------------------------------------------------|
     I    once had a     girl,     or  should I   say, she once had me.



     D                                                               D    D
E |--2----2------2---2---2--2--2------------------2------------------2----0h2-|
B |--3----3------3---3---3--3--3------------------3--------3---------3----3---|
G |--2----4------2---0---0--0--0-------0----------2--------0---------2----2---|
D |--0----0------0---0---4--4--4---2----------4---0--------0---------0----0---|
A |--0-------------------------------------------------3--------2----0----0---|
E |---------------------------------------------------------------------------|
     She  showed me  her room,     is  n't    it  good nor-we - gian wood.


bridge
           Dm                                            G
E |--------1---------------------------------------------3--------------------|
B |--------3---------------------------------------------0--------------------|
G |--------2---------------------------------------------0--------------------|
D |--------0---------------------------------------------0--------------------|
A |--------0---------------------------------------------2--------------------|
E |------------------------------------------------------3--------------------|
      She  asked me to stay and she told me to sit any - where.


   Dm                                           G              A
|--1--------------------------------------------3--------------0------------|
|--3--------------------------------------------0--------------2------------|
|--2--------------------------------------------0--------------2------------|
|--0--------------------------------------------0--------------2------------|
|--0--------------------------------------------2--------------0------------|
|-----------------------------------------------3---------------------------|
   I looked around and I noticed there wasn't a chair.



I sat on a rug, biding my time
    drinking her wine.
We talked until two, and then she said
    it's time for bed.

[repeat 1st measure]

She told me she worked in the morning
    and started to laugh.
I told her I didn't
    and crawled off to sleep in the bath.

And, when I awoke, I was alone
    this bird had flown.
So, I lit a fire, isn't it good
    Norwegian wood.

[repeat 1st measure]


notes:
1.  Spacing doesn't indicate timing - I just lined the tab up with the lyrics.
2.  Chords are tabbed for their first beat only.  The D chord is strummed down,
    up, down.  Note the hammer-on at the end of each measure.
3.  Holding the D chord, use your pinky for 3rd fret notes and index finger
    for 1st fret notes, middle finger for 3rd fret on the A string.
4.  Have an accompanist play along without a capo:
     E     D     E     D    [bridge]  Em    A    Em     A   B

--mxrangnjfumchebcqtfmbcrosshkmp--


=============================================================================

From: rh34+@andrew.cmu.edu (Robert R. Hall)
Subject: Alternate TAB: Norwegian Wood
Date: 6 Aug 92 16:22:34 GMT

This song is in E; you can play it in D with a capo, but
I don't have one, so I figured out this version.  It lets
you play the rhythm and lead guitar parts at the same time:

e --0---0---0---0---0---x---x---x---0---x---x---x---0----------
B --0---2---0---0---0---0---0---0---0---0---0---0---0----------
G --1---1---1---2---1---2---2---0---1---2---2---2---1----------
D --2---2---2---2---2---4---4---4---2---0---0---0---2----------
A --2---2---2---2---2---0---0---0---2---4---4---4---2----------
E --0---2---0---2---0---x---x---x---0---x---x---x---0----------
|
|   I  once had a  girl or shld I  say she once had me
-> (c)  B   (c) G  (c)  D   G   G  (c)  D   G    A  (c)   
         

Accent the string listed below the word to bring out
the melody. (c) means accent the whole chord.  Use your
smallest finger to hit the notes during "I once had a girl."

Chorus
------
Am                                             D
She asked me to stay and she told me to sit anywhere

Am                                            D     F# 
I looked around and I noticed there wasn't a chair ---> verse (E riff above)

----------------------------
I'm not sure of the complete lyrics, they're pretty clear
on the album (Rubber Soul)

Bob


5. My Love

MY LOVE  by  PAUL MCCARTNEY


Bbmaj7
And when I go away
                                                        Am7
I know my heart can stay with my love
               D9
It?s understood
                                       Gm7
It?s in the hands of my love

       Am7       Bbmaj7    Dm6(B)
And my love does it good
           F                 Gm7
Wo wo-wo wo, wo wo-wo wo,
Bb6                     F
My love does it good

And when the cupboard?s bare
l?ll still find something there with my love
It?s understood
It?s everywhere with my love
And my love does it good
Wo wo-wo wo, wo wo-wo wo,
My love does it good

F          Gm7  C7        F          F+
Wo wo I love, oh wo my love
             Bb6                    C7      F         F+
Only my love holds the other key to me
              Bb6   C7     F     A7
Oh my love, oh wo my love
      Bb6                       C7        F
Only my love does it good to me
 F+         Bb6      C7       F
Wo wo-wo wo, wo wo-wo wo,

Don?t ever ask me why
I never say goodbye to my love
It?s understood
It?s everywhere with my love
And my love does it good
Wo wo-wo wo, wo wo-wo wo
My love does it good
Wo wo l love, oh wo my love
Only my love does it good to me



-----------------------------------------------------------------

    PAUL MACCARTNEY - MY LOVE. Released as a single with THE MESS
                      as B side on 23rd March 1973.

-----------------------------------------------------------------

    Tabbed by:PJVillanueva






And when I go away
I know my heart can stay with my love, 
it’s understood, it’s in the hands of my love 
And my love does it good
Wo-wo-wo wo, wo-wo-wo wo 
My love does it good

And when the cupboards bare
I’ll still find something there with my love
It’s understood, it’s everywhere with my love
And my love does it good

Wo-wo-wo wo, wo-wo-wo wo 
My love does it good

Oh, I love, oh, wo my love
Only my love holds the other key to me
Oh my love, oh my love
Only my love does it good to me

(solo)

Wo-wo-wo wo, wo-wo-wo wo 
My love does it good

Don’t ever ask me why 
I never say goodbye to my love
It’s understood, it’s everywhere with my love
And my love does it good

Wo-wo-wo wo, wo-wo-wo wo 
My love does it good

Oh, I love, oh, wo my love
Only my love does it good to me
Wowowowo wo wo wo wo wooooooh




                                     
                   ..............................................
e|------- ------- 5------ -------|------- ------- ------- -------|
B|-------------------------------|-------------------------------|
G|-------------------------------|-------------------------------|
D|-------------------------------|-------------------------------|
A|-------------------------------|-------------------------------|
E|-------------------------------|-------------------------------|




  ...............................
e|------- ------- ------- -------|------- ------- ------- -------|
B|-------------------------------|-------------------------------|
G|-------------------------------|-------------------------------|
D|-------------------------------|-------------------------------|
A|-------------------------------|-------------------------------|
E|-------------------------------|-------------------------------|
  Bbmaj7             
e|1------ 1------ 1------ 1------|1------ 1------ 1------ 1------|
B|3-------3-------3-------3------|3-------3-------3-------3------|
G|2-------2-------2-------2------|2-------2-------2-------2------|
D|----------------------------3--|----3-------3-------3-------3--|
A|1------------------------------|1------------------------------|
E|-------------------------------|-------------------------------|
            And I go away                  I know heart      with  
             when                               my    can       my
                                                        stay

  Am7                                     D
e|5------ 5------ 5------ -------|------- ------- --2H3P2 -------|
B|5-------5-------5--------------|------------------------3------|
G|5-------5-------5--------------|----------------2--------------|
D|5-------5-------5-------7-6-5-4|--------4----------------------|
A|-------------------------------|--------5----------------------|
E|5---------------5--------------|-------------------------------|
      love,               it’s                 It’s   hands  of my  
                            understood            in 
                                                    the
e|------- ------- 5------ 5------|------- ------- ------- -------|
B|----------------5-------5------|-------------------------------|
G|----------------5-------5------|-------------------------------|
D|----------------7-------7------|-------------------------------|
A|----------------7-------7------|-------------------------------|
E|----------------5-------5------|-------------------------------|




  Gm7                             Am              Bbmaj7
e|------- ------- ------- -------|------- ------- ------- -------|
B|3-------3-------3-------3---3--|5-------5-------6--------------|
G|3-------3-------3-------3---3--|5-------5-------7--------------|
D|3-------3-------3-------3---3--|7-------7-------7--------------|
A|-------------------------------|-------------------------------|
E|3---------------3--------------|5---------------6--------------|
       love,                  and my love         does it     good
e|------- ------- 3------ -------|------- ------- ------- -------|
B|----------------3--------HP----|-------------------------------|
G|----------------3-------353--3-|-------------------------------|
D|----------------5-----------5--5/6-----------------------------|
A|----------------5--------------|-------------------------------|
E|----------------3--------------|-------------------------------|




  B/dim
e|------- ------- ------- -------|
B|------6---------6-------6------|
G|--------7-------7-----------7--|
D|----------7-----7---------7----|
A|-------------------------------|
E|7---------------7--------------|
                          Wo  wo 
e|------- ------- ----5-- -------|
B|--------------------6---6------|
G|--------------------7-------7--|
D|--------------------7----------|
A|-------------------------------|
E|--------------------7----------|




  F                               G7sus4                 G11
e|------- ------- ------- -------|------- ------- ------- --8----|
B|1-----------1-----------1------|3-----------3-----------10-----|
G|2-----------2-----------2------|5-----------5----------10------|
D|3-----------3-----------3------|3-----------3------------------|
A|-------------------------------|-------------------------------|
E|1-----------1-----------1------|3-----------3------------------|     
  wo      wo              wo  wo  wo      wo, 
e|------- ----1-- ------- -------|------3 ------- ------- -------|
B|------------1------------------|------3------------------------|
G|------------2------------------|------3------------------------|
D|------------3------------------|------5------------------------|
A|------------3------------------|------5------------------------|
E|------------1------------------|------3------------------------|




  Bb                              F
e|------- ------- ------- -------|------- ------- ------- -------|
B|6-------6---------------6------|1-----------1---1-------1------|
G|7-------7---------------7------|2-----------2---2-------2------|
D|8-------8---------------8------|3-----------3---3-------3------|
A|-------------------------------|-------------------------------|
E|6------------------------------|1---------------1--------------|
  my      love    does it     good
e|------- ------- ------- -------|------- ------- ------- -------|
B|-------------------------------|-------------------------------|
G|-------------------------HP----|-------------------------------|
D|--------------------3-5-353----|-------------------------------|
A|-------------3-3/5----------5-\|3---------------3-------3------|
E|-------------------------------|1---------------1-----------1-/|      



  00:49
  
e|1------ ------- ------- -------|1------ ------- ------- -------|
B|3-------3-------3-------3------|3-------3-------3-------3------|
G|2-------2-------2-------2------|2-------2-------2-------2------|
D|----3---------------3-------3--|----3-------3-------3-------3--|
A|1------------------------------|1------------------------------|
E|-------------------------------|-------------------------------|         
             And  cupboards                 I’ll  something   with  
              when      bare                  still     there   my
                the                             find  
e|------- ------- ------- -------|------- ------- ------- -------|
B|-------------------------------|-------------------------------|
G|-------------------------------|-------------------------------|
D|-------------------------------|-------------------------------|
A|----------------------------8-\|-------------------------------|
E|6------------------------------|6---------------6-------6------|



   
 
e|------- ------- ------- -------|------- ------- ------- -------|
B|5-------5-------5--------------|-------------------------------|
G|5-------5-------5--------------|----------------2--------------|
D|7-------7-------5-------7-6-5-4|--------4---------------4------|
A|-------------------------------|-------------------------------|
E|5---------------5--------------|-------------------------------|      
     love                 it's                      it’s    with  
                            understood               everywhere my
e|------- 5------ 5------ -------|------- ------- ------- -------|
B|--------5-------5--------------|------------5---5---5----------|
G|--------5-------5---5----------|----------5---5---5------------|
D|--------7-------7---5H7-7-6-5-4|-------------------------------|
A|--------7-------7--------------|-------------------------------|
E|5-------5-------5--------------|-------------------------------|





e|------- ------- ------- -------|------- ------- ------- -------|
B|3-------3-----3-----3-3-3-3-3--|5-------5---5---6---6---6------|
G|3-------3-----3-----3-3-3-3-3--|5-------5---5---7---7---7------|
D|3-------3-----3-----3-3-3-3-3--|7-------7---7---7---7---7------|
A|-------------------------------|-------------------------------|     
E|3---------------3--------------|5---------------6--------------|
       love,                  and my love         does it     good
e|------- ------- ------- -------|------- 5------ ------- 5------|
B|-------------------------------|--------5---------------6------|
G|----------------3-------------/|5-------5---------------7------|
D|----------------3H5-~---------/|7-------7---------------7------|
A|-------------------------------|--------7----------------------|
E|-------------------------------|--------5---------------6------|




 
e|------- ------- ------- -------|
B|6-------6---6---6---6---6------|
G|7-------7---7---7---7---7------|          
D|7-------7---7---7---7---7------|
A|-------------------------------|
E|7---------------7--------------|
                          Wo  wo 
e|------- 5------ ------- 5------|
B|----------6---------------6----|
G|------------7------------------|
D|-------------------------------|
A|-------------------------------|
E|-------------------------------|





e|------- ------- ------- -------|------- ------- ------- -------|        
B|1-----------1---1-------1------|3-----------3------------------|
G|2-----------2---2-------2------|5-----------5------------------|
D|3-----------3---3-------3------|3-----------3------------------|
A|-------------------------------|-------------------------------|
E|1---------------1--------------|3-----------3------------------|     
  wo      wo              wo  wo  wo      wo, 
e|------- ------- ------- -------|------3 ------- ------- -------|
B|-------------------------------|------3------------------------|
G|----------------------------5--|------3------------------------|
D|------------------------7------|------5------------------------|
A|-------------------------------|------5------------------------|
E|-------------------------------|------3------------------------|





e|------- ------- ------- -------|------- ------- ------- -------|
B|6-------6-------6-------6------|1-------1---1---1-------1------|
G|7-------7-------7-------7------|2-------2---2---2-------2------|
D|8-------8-------8-------8------|3-------3---3---3-------3------|
A|-------------------------------|-------------------------------|
E|6---------------6--------------|1---------------1--------------|
  my      love    does it     good                        Oh, 
e|------- ------- ------- -------|------- ------- ------- -------|
B|------------4---3--------------|-------------------------------|
G|------------------------3------|2---------------5-----P--------|
D|-------------------------------|------------5/7----7\53-5---3H5|
A|-------------------------------|-------------------------------|
E|-------------------------------|-------------------------------|                
     


  01:33
  Gm7             C               F               F+5
e|------- ------- ------- -------|------- ------- ------- -------|
B|3-------3----------------------|1-------1-------2-------2------|
G|3-------3---------------0------|2-------2-------2-------2------|
D|3-------3-------2-------2------|3-------3-------3-------3------|
A|----------------3--------------|-------------------------------|
E|3------------------------------|1---------------1--------------|
  I   love                oh, wo  my  love                  only            
                                                               my
e|------- ------- ------- -------|------- ------- ------- -------|
B|-------------------------------|-------------------------------|
G|----------3--------------------|-------------------------------|
D|--------5-----------2-------5--|3---------------3-------2------|
A|----------------3-------3------|------------3------------------|
E|-------------------------------|----3---3/5--------------------|




  Bb              C               F               F+5
e|------- ------- ------- -------|------- ------- ------- -------|      
B|3-------3-------1-------1------|1-----------1---2-------2------|
G|3-------3-------0-------0------|2-----------2---2-------2------|
D|3-------3-------2-------2------|3-----------3---3-------3------|
A|1---------------3--------------|-------------------------------|
E|-------------------------------|1---------------1--------------|
    love    holds other     key               to  me,      oh
                the
e|------- ------- ------- -------|------- ------- ------- -------|
B|-------------------------------|-------------------------------|
G|-------------------------------|-------------------------------|
D|-------------------------------|--------------------3----------|
A|5---------------3--------------|------------3---4-----------0--|
E|-------------------------------|1-----3/5---------------1------|




  Gm7             C               F               F+5
e|------- ------- ------- -------|------- ------- ------- -------|
B|3-------3-------1-------1------|1-------1-------2-------2------|
G|3-------3-------0-------0------|2-------2-------2-------2------|
D|3-------3-------2-------2------|3-------3-------3-------3------|
A|----------------3--------------|-------------------------------|
E|3------------------------------|1---------------1--------------|         
  my  love,               oh      my  love                   only            
                                                                my
e|------- ------- ------- 3------|------- ------- ------- -------|
B|------------------------5------|-------------------------------|
G|------------------------3------|-------------------------------|
D|------------------------5------|-------------------------------|
A|------------------------3------|------------3---4-----------0--|
E|3------------------------------|1---3-/-5---------------3------|




  Gm7             C9      C       F
e|------- ------- ------- -------|------- ------- ------- -------|
B|3-------3-------3-------1------|1------------------------------|
G|3-------3-------3-------0------|2---------------2H3-2---0------|
D|3-------3-------2-------2------|3---------------------------3--|
A|----------------3-------3------|-------------------------------|
E|3------------------------------|1------------------------------|
    love    does  good    to      me
                it
e|------- ------- ------- -------|------- ------- ------- -------|
B|-------------------------------|-------------------------------|
G|-------------------------------|-------------------------------|
D|-------------------------------|-------------------------------|
A|1-----------1---3--------------|-------------------------------|
E|-------------------------------|1------------------------------|

                

  02:05
  Bb                      Bbmaj7  Bb
e|------- ------- -------10------|------- ------- ------- -------|
B|3---------------3------10------|3------------------------------|
G|3---------------3------10------|3-----------------------3------|
D|3---------------3-------8------|3---------------3-----------3--|
A|1---------------1--------------|1---------------1--------------|
E|-------------------------------|-------------------------------|

e|----6-- --3---- ------- -------|------- 6-3---- ------- 3------|         
B|--------------6----------------|------------6-------6-----6----|
G|--------------- 5B7R5B7R5B7----|--------------5B7-----------5B7R
D|-------------------------------|-------------------------------|
A|-------------------------------|-------------------------------|
E|-------------------------------|-------------------------------|

e|------- ------- ------- 10-----|------- ------- ------- -------|
B|------------------------10-----|-------------------------------|
G|------------------------10-----|-------------------------------|
D|------------------------12-----|-------------------------------|
A|------------------------13-----|-------------------------------|
E|-------------------------------|-------------------------------|




  Am7                                     D     D7
e|------- ------- ------- -------|------- ------- ------- -------|
B|5-------5----------------------|--------3----------------------|
G|5-------5-------5--------------|--------2-----5---------2------|
D|5-------5-------5-------7-6-5-4|--------4-------4--------------|
A|-------------------------------|--------------------5----------|
E|5------------------------------|-------------------------------|

e|------- ------- ----8-- -------|------- ------- ------- -------|
B|-----------------10-----1010---|--------------------------8-8-8|
G|5--~------------9-----------9-/|11--~--------------------------|
D|-------------------------------|-------------------------------|
A|-------------------------------|-------------------------------|
E|-------------------------------|-------------------------------|




  Gm7                             Am7                 Bbmaj7
e|------- ------- ------- -------|------- ------- ------- -------|
B|3-----------------3-----3-3-3--|5---5-----5---5-----6---6-6-6--|
G|3-----------------3-----3-3-3--|5---5-----5---5-----7---7-7-7--|
D|3-----------------3-----3-3-3--|5---5-----5---5-----7---7-7-7--|
A|-------------------------------|-------------------------------|
E|3---------------3--------------|5-------------------6----------|

e|------- ------- ------- -------|------- ------- ------- ------8|
B|8-\---------------------/101010|10-\--------------6-8---6-8/10-|
G|----3-3---3-3------------------|----5-5------5-5/7-------------|
D|-------------------------------|-------------------------------|
A|-------------------------------|-------------------------------|
E|-------------------------------|-------------------------------|



                
  B/dim         Dm
e|--------- ----13--- --------- ---------|
B|---6---6------15-----------------------|
G|---7---7------14-----------------------|
D|---7---7-------------------------------|
A|---------------------------------------|
E|7--------------------------------------|
                                Wo     wo 
e10/13--13- 10--10--- --------- ---------|
B|-----------13--13--B-R-P-------B-------|
G|-----------------1214121012101214121012|
D|---------------------------------------|
A|---------------------------------------|
E|---------------------------------------|                  





e|------- ------- ------- -------|------- ------- ------- --8----|
B|1-----------1------------------|3-----------3-----------10-----|
G|2-----------2------------------|3-----------5----------10------|
D|3-----------3------------------|3-----------3------------------|
A|-------------------------------|-------------------------------|
E|1-----------1------------------|3-----------3------------------|      
  wo      wo              wo  wo  wo      wo, 
e|------- ------- ------- -------|------- ------- ------- -------|
B|-------------------------------|-------------------------------|
G|10--~--------------------------|-------------------------------|
D|-------------------------------|-------------------------------|
A|-------------------------------|-------------------------------|
E|-------------------------------|-------------------------------|





e|------- ------- ------- -------|------- ------- ------- -------|
B|6-------6-------6---6----------|1---------1-----1--------------|
G|7-------7-------7---7----------|2-------2-------2--------------|
D|8-------8-------8---8----------|3-------3-------3--------------|
A|-------------------------------|-------------------------------|
E|6---------------6--------------|1---------------1--------------|
  my      love    does it     good
e|------- ------- ------- -------|------- ------1 ------- 1------|
B|-------------------------------|--------1-----1-1-------1------|
G|-------------------------------|--------2-----2-2-------2------|
D|--------------------3-5-3------|--------3-------3-------3------|
A|----------------3/5---------5-\|3-------3---------------3------|
E|-------------------------------|1-------1---------------1------|     



  02:49

e|1------ ------- ------- -------|1------ ------- ------- -------|
B|3-------3-------3-------3------|3-------3-------3-------3------|
G|2-------2-------2-------2------|2-------2-------2-------2------|
D|----3-----------------------3--|------------3-------3----------|
A|1------------------------------|1------------------------------|
E|-------------------------------|-------------------------------|         
            Don’t ask me why                I never   goodbye to         
              ever                                say           my               
e|1------ ------- ------- -------|1------ ------- ------- -------|
B|3------------------------------|3------------------------------|
G|3------------------------------|3------------------------------|
D|3------------------------------|3------------------------------|
A|1------------------------------|1------------------------------|
E|---------------------------10-\|-------------------------------|



   

e|------- ------- ------- -------|------- ------- ------- -------|     
B|5-------5-------5--------------|----------------3--------------|
G|5-------5-------5--------------|------------2------------------|
D|7-------7-------7-------7-6-5-4|--------4---------------4------|
A|-------------------------------|------------------------5------|
E|5---------------5--------------|-------------------------------|      
    love                  it's                      it’s    with  
                            understood               everywhere my 
e|------- ------- ------- -------|------- ------- ------- -------|
B|-------------------------------|-------------------------------|
G|----------------5--------------|-------------------------------|
D|----------------5H7-5---7-6-5-4|-------------------------------|
A|--------------7----------------|-------------------------------|
E|-------------------------------|-------------------------------|





e|------- ------- ------- -------|------- ------- ------- -------|          
B|3-------3---3-----3-------3-3--|5---------5-----6-------6------|
G|3-------3---3-----3-------3-3--|5---------5-----7-------7------|
D|3-------3---3-----3---2-3-3-3--|7---------7-----7-------7------|
A|-------------------------------|-------------------------------|     
E|3---------------3--------------|5---------------6--------------|
       love,                  and my love         does it     good
e|------- 3------ 3------ 3------|5------ 5------ 6------ 6------|
B|--------3-------3-------3------|5-------5-------6-------6------|
G|--------3-------3-------3------|5-------5-------7-------7------|
D|--------5-------5-------5------|7-------7-------8-------8------|
A|--------5-------5-------5------|7-------7-------8-------8------|
E|--------3-------3-------3------|5-------5-------6-------6------|





e|------- ------- ------- -------|       
B|6-----6-6-----6-6-------6---6--|
G|7-----7-7-----7-7-------7---7--|          
D|7-----7-7-----7-7-------7---7--|
A|-------------------------------|
E|7---------------7--------------|
                          Wo  wo 
e|------- ------- 5------ 5------|
B|6-------6---------6---------6--|
G|7-------7---------7---------7--|
D|7-------7----------------------|
A|-------------------------------|
E|7-------7----------------------|




  F                               G7sus4                  G11        
e|------- ------- ------- -------|------- ------- ------- 8------|        
B|1-----------1-----------1------|3-----------3----------10------|
G|2-----------2-----------2------|5-----------5----------10------|
D|3-----------3-----------3------|3-----------3------------------|
A|-------------------------------|-----------------------10------|
E|1------------------------------|3-----------3------------------|         
  wo      wo              wo  wo  wo      wo, 
e|1------ ----1-- ------- -------|------3 ------- ------- -------|
B|1-----------1------------------|------6------------------------|
G|2-----------2------------------|------3------------------------|
D|3-----------3------------------|------3------------------------|
A|3-----------3------------------|------5------------------------|
E|1-----------1------------------|------3------------------------|




  Bbadd9                          F
e|8------ 8------ 8------ -------|8------ 8--8--- ----8-- -------|    
B|6-------6-------6--------------10------10-10-------10----------|
G|7-------7-------7--------------10------10-10-------10----------|
D|8-------8-------8--------------10------10-10-------10----------|
A|-------------------------------|8-------8--8--------8----------|
E|6---------------6--------------|-------------------------------|
  my      love    does it     good                        Oh, 
e|------- ------- ------- -------|------- ------- ------- -------|
B|-------------------------------|-------------------------------|
G|-------------------------------|-------------------------------|
D|-------------------------------|-------------------------------|
A|1-------1-----------3/5-3------|-------------------------------|
E|----------------------------5\3|1------------------------------|

  03:33
  Gm7             C7              F               F+5
e|------- ------- ------- -------|------- ------- ------- -------|
B|3-------3-------1-------1------|1-------1-------2-------2------|
G|3-------3-------3-------3------|2-------2-------2-------2------|
D|3-------3-------2-------2------|3-------3-------3-------3------|        
A|------------------------3------|-------------------------------|
E|3------------------------------|1---------------1--------------|
  I   love                oh, wo  my  love                only            
                                                                my
e|------- ------- ------- -------|------- ------- --9---- 9------|
B|-------------------------------|-------------------10----10----|
G|-------------------------------|---------------------10----10--|
D|-------------------------------|-------------------------------|
A|----5-------5-\-3--------------|-------------------------------|
E|3-------1-------0--------------|-------------------------------|



                  (.
  Bb              C9
e|------- ------- ------- -------|------- ------- ------- -------|      
B|3-------3-------3--------------|-------------------------------|         
G|3-------3-------3--------------|-------------------------------|
D|3-------3-------2--------------|-------------------------------|
A|1---------------3--------------|-------------------------------|
E|-------------------------------|-------------------------------|
    love    does  good                  to
               it
e|------- ------- ------- -------|------- ------- ------- -------|
B|----------------3--------------|-------------------------------|
G|7---------7-----3--------------|-------------------------------|
D|8-----------8---5--------------|-------------------------------|
A|8-------8-------3--------------|-------------------------------|
E|6-------6----------------------|-------------------------------|
                  C7sus2



  F               F+5             Bb              C6
e|------- ------- ------- -------|------- ------- ------- -------|
B|1-------1-------2-------2------|3-------3-------1-------1------|
G|2-------2---2---2---2---2------|3-------3-------2-------2------|
D|3-------3-------3-------3------|3-------3-------2-------2------|
A|-------------------------------|1---------------3-------3------|
E|1---------------1--------------|-------------------------------|
  me              Wo  wo  wo  wo  wo      wo      wo      wo
e|------- ------- 5------ 5------|6------ 6------ 8------ 8------|
B|----------------6-------6------|8-------8------10------10------|
G|----------------6-------6------|7-------7-------9-------9------|
D|----------------7-------7------|8-------8------10------10------|
A|-------------------------------|-------------------------------|
E|-------------------------------|6-------6-------8-------8------|
                                  Bb6             C6
e|------- ------- ------- -------|------- ------- ------- -----13|
B|-------------------------------|-----------------------------13|
G|-------------------------------|-----------------------------12B
D|-------------------------------|-------------------------------|
A|-------------------------------|-------------------------------|
E|-------------------------------|-------------------------------|




  (.
  F
e|------- ------- ------- -------|------- ------- ------- -------|
B|1------------------------------|-------------------------------|
G|2------------------------------|-------------------------------|
D|3------------------------------|-------------------------------|
A|-------------------------------|-------------------------------|
E|1------------------------------|-------------------------------|
  wo
e|8------ ------- ------- -------|------- ------- ------- -------|
B10------------------------------|-------------------------------|
G10------------------------------|-------------------------------|
D10------------------------------|-------------------------------|
A|8------------------------------|-------------------------------|
E|-------------------------------|-------------------------------|

e|------- ------- ------- -------|------- ------- ------- -------|
B|-------------------------------|-------------------------------|
G|14--~--------------------------|-------------------------------|
D|-------------------------------|-------------------------------|
A|-------------------------------|-------------------------------|
E|-------------------------------|-------------------------------|

e|------- ------- ------- -------|------- ------- ------- -------|
B|---------P---------------------|-------------------------------|
G|----2---32---P-----------------|-------------------------------|
D|------------53---P---P---------|-------------------------------|
A|----------------53--10--1---0--|-------------------------------|
E|-------------------------------|-------------------------------|









        B  Bend
        R  Release
        /  Slide up
        \  Slide down
        H  Hammer-on
        P  Pull-off
        ~  Vibrato
        +  Harmonic
        x  Mute note
        .  Play note like a dot in standard notation
        ^  Ties two notes together
        (. Pause




Valid XHTML 1.0! Valid CSS! powered by MoniWiki
last modified 2012-05-08 14:46:21
Processing time 0.0702 sec