FrontPage Music~Eagles

1. Take it to the limit

Title:  	Take it to the limit
Artist: 	Eagles
Album: 	One of These Nights
Capo: 	
Tuning: 	Eb-Ab-Db-Gb-Bb-Eb
Picked by: 	M. van Dam
Posted on: 	Tabsrus.nl

C    -X-3-2-0-1-0- 
\F   -X-X-3-X-X-X-
\G   -X-X-X-0-X-X-
F    -1-3-3-2-1-1- 
\E   -X-X-2-X-X-X-
G\D  -X-5-5-4-3-3- 
E7   -0-2-2-1-3-0- 
Am   -X-0-2-2-1-0- 
G    -3-2-0-0-0-3- 
G\F  -1-X-0-0-0-3- 
C\E  -0-3-2-0-1-0- 
Dm   -X-X-0-2-3-1- 
Dm\E -0-0-0-2-3-1-
F\G  -3-X-3-2-1-1- 
Am\G -3-0-2-2-1-0-

Tuning: Eb-Ab-Db-Gb-Bb-Eb


Intro:
|C    |C \F \G |F    |F    |
|C    |C \F \E |G\D  |F    |


Verse:
      C                            F
All alone at the end of the of the evening
        C                           F
And the bright lights have faded to blue
      C                E7
I was thinking ’bout a woman who might have
Am                   G         G\F       C\E
Loved me and I never knew
              G\D           C                      F
You know I’ve always been a dreamer (spent my life running ’round)
                    C                     F
And it’s so hard to change (can’t seem to settle down)
                         Dm     |Dm    Dm\E |
But the dreams I’ve seen lately
F                          F\G
   Keep on turning out and burning out
    G               F\G         G
And turning out the same


Chorus:
   F           C
So put me on a highway
    F         C
And show me a sign
    F              G              C
And take it to the limit one more time


[Repeat intro]


Verse
You can spend all your time making money
You can spend all your love making time
If it all fell to pieces tomorrow
Would you still be mine? 
And when you’re looking for your freedom (nobody seems to care)
And you can’t find the door(can’t find it anywhere)
When there’s nothing to believe in
Still you’re coming back, you’re running back
You’re coming back for more

Chorus:
   F           C
So put me on a highway
    F         C
And show me a sign
    F              G              Am    |Am    Am\G |
And take it to the limit one more time


Outro (repeat till fade out):
F              G
Take it to the limit
F              G
Take it to the limit
F              G              C
Take it to the limit one more time
TAKE IT TO THE LIMIT

*capo 4th*

INTRO:
	G       C       G       D   C

    G                       C
All alone at the end of the evening
	G                           C
and the bright lights have faded to blue.
      G                B7                   Em
I was thinking 'bout a woman who might have loved me,
	    D
but I never knew.
G                     D             G                      C
	You know I've always been a dreamer (spend my life runnin' round)
	 C          G
and it's so hard to change (can't seem to settle down)
	C                Am     C
but the dreams I've seen lately   keep on turnin' out
    C/D             D               C/D  D
and burnin' out and turnin' out the sa - me.

CHORUS:
   C           G           C         G
So put me on a highway and show me a sign
    C              D              G
and take it to the limit one more   time.

INTERLUDE:
G       C       G       D  C

	G                           C
You can spend all your time making money,
	   G                          C
Or you can spend all your love making time.
      G           B7        Em
If it all fell to pieces tomorrow
		   D
would you still be mine?
G                   D                G               C
    And when you're looking for your freedom (nobody seems to care)
		       G                   C
And you can't find the door (can't find it anywhere)
	     C            Am       C              C
when there's nothing to believe in   still you're coming back,
       C/D                  D               C/D  D
you're running back, you're coming back for mo - re.

CHORUS:
   C           G           C         G
So put me on a highway and show me a sign
    C              D           Em
and take it to the limit one more time.

|:   C         D      C              D
     Take it to the limit, take it to the limit,
C              D           G
take it to the limit one more time.  :|
	(Repeat seven times)

CHORDS:
(4th fret means capoed open string)

C/D     xx4454
B7      x65646

2. Seven Bridges Road

SEVEN BRIDGES ROAD: as performed by The Eagles

This is a pretty simple D C G D song for most of the verses.

INTRO (play a 1000 times)

	D
e-----------------------------------------------------------------
B-----3-------3-----3-------3-----3-------3-----3-------3---------
G--------0h2-----------0h2-----------0h2-----------0h2------------
D--0-------------0-------------0-------------0--------------------
A-----------------------------------------------------------------
E-----------------------------------------------------------------

VERSES:

	D					C
e-----------------------------------------------------------------
B-----3-------3-----3-------3-------------------------------------
G--------0h2-----------0h2--------0-------0-----0-------0---------
D--0-------------0-------------------0h2-----------0h2------------
A------------------------------3-------------3--------------------
E-----------------------------------------------------------------

	There are 			stars in the
	Southward				as you

	G					D
e-----------------------------------------------------------------
B---------------------------------3-------3-----3-------3---------
G------------------------------------0h2-----------0h2------------
D-----0-------0-----0-------0--0-------------0--------------------
A--------0h2-----------0h2----------------------------------------
E--3-------------3------------------------------------------------

	sou--------------thern 	sky
	go------------------------o

FANCY RUNS (nothing more than standard bass runs in C and G)

	D (4X)
e-----------------------------------------------------------------
B-----3-------3-----3-------3-----3-------3-----3-------3---------
G--------0h2-----------0h2-----------0h2-----------0h2------------
D--0-------------0-------------0-------------0--------------------
A-----------------------------------------------------------------
E-----------------------------------------------------------------

	C				   G				   D
e-----------------------------------------------------------------
B---------------------------------------------------3-------3-----
G---------------0--0h2p0-------------------------------0h2--------
D-----------0h2----------2-----------0-0h2p0-----0----------------
A--0-2-3--3----------------------0h2---------2--------------------
E----------------------------3-3----------------------------------

BRIDGE

C riff 4X			G riff 4X
Sometimes there's a part of me 
C riff					    D
(that) wants to turn from here and go.
C					 G
Running like a child from these warm stars,
		D	C	  G
Down the seven bridges road


REST OF VERSES
There are stars in the southern sky,
Southward as you go.
There is moonlight and moss in the trees,
Down the seven bridges road.

There are stars in the southern sky.
And if ever you decide you should go.
There is a taste of thyme sweet and honey.
Down the seven bridges road.

3. Take it easy

TAKE IT EASY
EAGLES


INTRO:
        G       C/G  Am7/G
        G       C/G  Am7/G

G                   G
        Well, I'm a runnin' down the road, tryin' to loosen my load,
                        D  C
I've got seven women on my mind.
G                       D
Four that wanna own me, two that wanna stone me,
 C                         G
one says she's a friend of mine. 
        Em            C    G 
Take it easy, take it ea - sy, 
              Am                C                Em 
don't let the sound of your own wheels drive you crazy. 
       C                    G              C           G 
Lighten up while you still can, don't even try to understand, 
            Am                 C                  G 
just find a place to make your stand and take it easy. 
 
            G 
Well, I'm a standin' on a corner in Winslow, Arizona 
                D        C 
and such a fine sight to see: 
       G                   D 
it's a girl, my Lord, in a flat bed Ford 
        C                      G 
slowin' down to take a look at me. 
         Em   D             C     G 
Come on, ba - by, don't say may - be. 
        Am                  C            Em 
I gotta know if your sweet love is gonna save me. 
       C               G                  C              G 
We may lose and we may win though we will never be here again. 
        Am               C               G 
So open up, I'm climbin' in, so take it easy. 
 
guitar solo 
        G            D  C 
        G       D       C       G 
        Em              C       G 
        Am      C       G 
 
            G 
Well, I'm a runnin' down the road, tryin' to loosen my load, 
                       D     C 
got a world of trouble on my mind. 
G                       D 
Lookin' for a lover who won't blow my cover, 
      C          G 
she's so hard to find. 
        Em            C    G 
Take it easy, take it ea - sy, 
              Am                C                Em 
don't let the sound of your own wheels drive you crazy. 
         C    G             C     G 
Come on, ba - by, don't say may - be. 
        Am                 C             G 
I gotta know if your sweet love is gonna save me. 
 
C       G 
C       G 
C                     G  G9  C 
        Oh, we got it ea  -  sy, 
                  G  G9  C 
we oughta take it ea  -  sy. 
 
(end on) Em 
 
 
CHORDS: 
 
C/G     3x2013 
Am7/G   3x0213 
G9      30212x 
 

Electric Part 
GUITAR 2 
(clean electric) 
 
INTRO
play this twice:
 
e:-3------------|-3-------------|-3--------------|
B:-3------------|-1-------------|-1--------------| 
G:-0------------|-0-------------|-2--------------| 
D:-0------------|-2-------------|-0--------------| 
A:--------------|---------------|----------------| 
E:--------------|---------------|----------------| 
 
 
     1     1    1 
    +     +    +      +         +  +  +  + 
|-----------------------------|------------| 
|-----------------------------|------------| 
|---7-----7----7--------------|------------| 
|---7^----7^---7^p5-----------|------------| 
|-------------------7p5-------|------------| 
|-----------------------6p5-2-|-3~~~~~-----| 
                                  Well I'm a runnin' down the road... 
 
 

After the 1st verse play this:
 
     1     1    1 
    +     +    +          + 
|---------------------------------| 
|---------------------------------| 
|---7-----7----7---7--------------| 
|---7^----7^---7^--7^p5-----------| 
|-----------------------7p5-------| 
|---------------------------6p5-3-| 
                           Well, I'm a standin'... 
 
 
SOLO: 
 
G                                                                     D7 
 
|-------3-3---3----3-3-3-3|--------3-3-3--------------|----------------------| 
|-------3-3---3----3-3-3-3/5-------3-3-3--3\1--0-0-0--|--1/3----3----3/1-----| 
|-2/4-------4-------------|----4----------4\2--0-0-0--|--2/4----4----4/2---0-| 
|-------------------------|---------------------------|----------------------| 
|-------------------------|---------------------------|----------------------| 
|-------------------------|---------------------------|----------------------| 
 
      C                                          G          
|--------|--------------------------------------|--------------------------| 
|-1------|----------------1-------------1----1///3---3-----------3\1----0--| 
|-2---0--|----------------0-------------0----2///4-------4~~~~---4\2----0--| 
|--------|------0--0--2-------------2-----------|--------------------------| 
|--------|--------------------------------------|--------------------------| 
|--------|--------------------------------------|--------------------------| 
 
           D                                C                G 
                                                    1     1 
|---------|--------------------------------------------------| 
|---------|-------10------------------------8-----10^---10^--| 
|-----2///////11-------11~~~~-11\9--7--7/9-----9-------------| 
|---------|--------------------------------------------------| 
|---------|--------------------------------------------------| 
|---------|--------------------------------------------------| 
 
                                      Em 
     1     1      1    1 
|-----------------------------10/12--|---12-------12--12--10h12--| 
|--10^---10^----10^--10^p8----10/12--|---12-------12--12--10h12--| 
|------------------------------------|---------------------------| 
|------------------------------------|---------------------------| 
|------------------------------------|---------------------------| 
|------------------------------------|---------------------------| 
 
                D                        C                        G 
                          1 1/2                             1 hold bend - - - 
|---12---10h12---10-----------------|-------------------------10---| 
|---12---10h12---10-----10----------|---------8---10--8---10^------| 
|------------------------9^p7-------|---7h8h9---9------------------| 
|---------------------------------9-|------------------------------| 
|-----------------------------------|------------------------------| 
|-----------------------------------|------------------------------| 
 
                                   Am                       C 
 
- - - - - - release bend 
|------------------------------7-8-7-----------| 
|-(10)^----(10)^p8--8----8/10---------10---8---| 
|---------------------9--------------------7b9-| 
|----------------------------------------------| 
|----------------------------------------------| 
|----------------------------------------------| 
 
                                            Em 
|------------------------------------------------------------------------------| 
|--8-------8--------8------------5----------10h12-----10h12-----10h12---10h12--| 
|-----7b9-------7b9----7p5-------5----------11h12-----11h12-----11h12---11h12--| 
|----------------------------7--------7----------------------------------------| 
|------------------------------------------------------------------------------| 
|------------------------------------------------------------------------------| 
 
                 D 
|--------------------------| 
|-10h12p10--10--/20~~~-----| 
|-11h12p11--11--/21~~~-----| 
|--------------------------| 
|--------------------------| 
|--------------------------| 
 
 
OUTRO: 
  C             Em 
    1            1 
|-----------------------------| 
|-----------------------------| 
|--7^--7--5-----7^~~~~~~~~~---| 
|------------7----------------| 
|-----------------------------| 
|-----------------------------|

Valid XHTML 1.0! Valid CSS! powered by MoniWiki
last modified 2012-05-08 14:46:21
Processing time 0.0117 sec