FrontPage Music~JasonMraz
Music »JasonMraz

1. I am yours

----------------------------------------------------------------------------
			     I'm Yours - Jason Mraz
----------------------------------------------------------------------------
Tabbed by: Anton Petersson 1 jan-07 updated: 15 okt-08
Email:antonpetersson1@hotmail.com

Tuning:EADGBe

This is the tab for the first version, not the one that was released 2008

To do the"clicking"sound: gently lift your fingers from the fretboard of the guitar but
keep your finger in the position of the chord. Use use right palm to mute the strings. 
should sound kind of reggea (use a plectrum to
get more "clicking")

this is an example of how to play the chords.

y= gently lift your fingers and strum downwards (clicking sound)
x= gently lift your fungers and strum upwards (clicking sound)

    B                                               |*switch chord*
e|-----x--y--x-----x--y--x-----x--y--x-----x--y--x--|
B|-----x--y--x-----x--y--x-----x--y--x-----x--y--x--|
G|--8--x--y--x--8--x--y--x--8--x--y--x--8--x--y--x--|
D|--9--x--y--x--9--x--y--x--9--x--y--x--9--x--y--x--|
A|--9--x--y--x--9--x--y--x--9--x--y--x--9--x--y--x--|
E|--7--x--y--x--7--x--y--x--7--x--y--x--7--x--y--x--|


Chords that used in most of the song

B=     F# =       G#m=       E=       *Fdim=     Ebm=
e|---|    e|----|   e|----|   e|----|  e|----|   e|----|
B|---|    B|-11-|   B|-12-|   B|----|  B|----|   B|----|
G|-8-|    G|-11-|   G|-13-|   G|-13-|  G|-16-|   G|-11-|
D|-9-|    D|-11-|   D|-13-|   D|-14-|  D|-15-|   D|-13-|
A|-9-|    A|-9--|   A|-11-|   A|-14-|  A|-14-|   A|-13-|
E|-7-|    E|----|   E|----|   E|-12-|  E|-13-|   E|-11-|

*I think it's called Fdim(no click-sound on this one)

Of course, you don't have to play this clicking sound just play the chords if you find 
hard to play it this way.

Intro:


B-F#-G#m-E x2

this is what the other guitar plays:
e|-----------------------------------------|
B|-----------------------------------------|
G|-11s13-11---11s13-11--11s13--------------|
D|--9s11-9-----9s11-----------13--13s14-9~-|
A|-----------------------------------------|
E|-----------------------------------------|

e|-----------------------------------------|
B|-----------------------------------------|
G|-11s13-11---11s13-11--11s13--------------|
D|--9s11-9-----9s11-----------13--13-13s14-|
A|-----------------------------------------|
E|-----------------------------------------|

     B
Well you done done me and you bet I felt it
  F#
I tried to be chill but you're so hot that I melted
  G#m
I fell right through the cracks
            E
and now I'm trying to get back
           B
Before the cool done run out I'll be giving it my bestest
F#
Nothing's going to stop me but divine intervention
  G#m                           E
I reckon it's again my turn to win some or learn some

B             F#             G#m
I won't hesitate no more, no more
          E
It cannot wait, I'm yours

B-F#-G#m-E

Verse2 *same chords*
Well open up your mind and see like me
Open up your plans and damn you're free
Look into your heart and you'll find love love love
Listen to the music of the moment maybe sing with me
A lá peaceful melodies

*until:*
G#m                                      E                    Fdim
     It's your God-forsaken right to be loved love loved love loved

*same chords*
So I won't hesitate no more, no more
It cannot wait I'm sure
There's no need to complicate
Our time is short
This is our fate, I'm yours

*Now he starts humming *
Same click-sound

   B         B/A#      G#m      F#        E                                 Fdim
e|--------------------------------------------------------------------------------------|
B|------------------------------------------9-x-y-x-9-x-y-x-9-x-y-x-9-x-y-x-12-12-12-12-|
G|--8-x-y-8---8-x-y-8---4-x-y-4---3-x-y-3---9-x-y-x-9-x-y-x-9-x-y-x-9-x-y-x-10-10-10-10-|
D|--9-x-y-9---9-x-y-9---6-x-y-6---4-x-y-4---9-x-y-x-9-x-y-x-9-x-y-x-9-x-y-x-9--9--9--9--|
A|--9-x-y-9---9-x-y-9---6-x-y-6---4-x-y-4--7--x-y-x-7-x-y-x-7-x-y-x-7-x-y-x-8--8--8--8--|
E|-7--x-y-7--6--x-y-6--4--x-y-4--2--x-y-2-----------------------------------------------|

x 2


*From here on it's B-F#-G#m-E until the end of the song*

Lyrics:

I've been spending way too long checking my tongue in the mirror
And bending over backwards just to try to see it clearer
But my breath fogged up the glass
And so I drew a new face and I laughed
I guess what I'm saying is there ain't no better reason
To rid yourself of vanity and just go with the seasons
It's what we aim to do
Our name is our virtue

I won't hesitate no more, no more
It cannot wait I'm sure
There's no need to complicate
Our time is short
This is our fate, I'm yours

Well open up your mind and see like me.
Open up your plans and damn your free.
I look into your heart and you'll find the sky is yours.
So please dont please dont please dont theres no need to complicate.
Cause our time is short.
This is this is this is our fait.

Im yours...



Simply play these chords through the whole song

/ C / G / Am / F /

Good luck!

      C
Well, you done done me and you bet I felt it 
  G
I tried to be chill but your so hot that i melted 
  Am                                     F
I fell right through the cracks, and i'm tryin to get back 
C
before the cool done run out i'll be givin it my best test 
G
and nothin's gonna stop me but divine intervention 
Am                             F
I reckon it's again my turn to win some or learn some 


C            G
I won't hesitate no more, 
    Am              F
no more, it cannot wait i'm yours 


C                                   G
Well open up your mind and see like me 
                                    Am
open up your plans and damn you're free 
                                      F    
look into your heart and you'll find love love love 
C                                                  G
listen to the music at the moment maybe sing with me 
                     Am
Ah, la peaceful melody 
                                    F
It's your god forsaken right to be loved loved loved loved Loved


I’m Yours
Standard Tuning
No Capo

Intro:

Guitar 1 (playing lead melody)

|--------------------------------------|------------------------------|
|--------------------------------------|------------------------------|
|-11/13-11~~11/13-11~~11/13-----8/9----|-11/13-11~~11/13-11~~11/13----|
|---------------------------13~~----9~~|---------------------------13~|
|--------------------------------------|------------------------------|
|--------------------------------------|------------------------------|

Guitar 1 (continued...)

|---------|
|---------|
|-8/9-8-9~|
|---------|
|---------|
|---------|

Guitar 2 (all chords have some weird up beat palm-muting stuff going on
listen to the song for picking)

|--7--2--11--10--|
|--7--2--12--10--|
|--8--3--13--11--| play this chord progression two times
|--9--4--13--12--|
|--9--4--11--12--|
|--7--2--11--10--|

Verse:

|--7--2--11--10--|
|--7--2--12--10--|
|--8--3--13--11--| play this chord progression two times
|--9--4--13--12--|
|--9--4--11--12--|
|--7--2--11--10--|

Chorus:

Same As Verse and intro

Pre-verse:

Guitar 1:

|-------------------------------------------------|
|-12/14-----12/14-----12/14----12-----------------|
|-11/13-11~~11/13-11~~11/13-------11--------------|
|---------------------------13~------13-13-13/14~~|
|-------------------------------------------------|
|-------------------------------------------------|

Guitar 2:

Same As Verse,Intro, And Chorus
Verse 2:

Play The Melody the same as in verse, intro, and chorus but add a 
measure of this chord:

|-4-| 
|-6-|
|-4-|do about three beats of that and on roughly fourth beat do a 
|-6-|slide down and pause before going into the chorus
|-4-|
|-4-|

Chorus:

Same as the other chorus

Bridge:

guitar 1:

|------------------------|
|------------------------|
|-11/13-11~11~8~6~4~~4/6~| play this twice but on the second time 
|------------------------| through instead of letting the last 
|------------------------| note ring, slide down.
|------------------------|

Guitar 2:

|--7--6--4--2--0--7\\|
|--7--8--4--2--0--9\\|
|--8--6--4--3--1--7\\| play twice and on on the second time after 
|--9--8--6--4--2--9\\| you do the slide on the last chord take a 
|--9--6--6--4--2--7\\| pause.
|--7--6--4--2--0--7\\| 

Verse 3:

Just Like verse the first verse

Chorus:

Guitar 1:

|--------------------------------------|------------------------------|
|--------------------------------------|------------------------------|
|-11/13-11~~11/13-11~~11/13-----8/9----|-11/13-11~~11/13-11~~11/13----|
|---------------------------13~~----9~~|---------------------------13~|
|--------------------------------------|------------------------------|
|--------------------------------------|------------------------------|

Guitar 2:

|-xx---x----xx---x----xx---x----xx---x-|--5-5---2-2---11-11---0-0-----|
|-xx---x----xx---x----xx---x----xx---x-|--5-5---2-2---12-12---0-0-----|
|-xx---x----xx---x----xx---x----xx---x-|--6-6---3-3---13-13---1-1-----|
|-xx---x----xx---x----xx---x----xx---x-|--7-7---4-4---13-13---2-2-----|
|-xx---x----xx---x----xx---x----xx---x-|--7-7---4-4---11-11---2-2-----|
|-xx---x----xx---x----xx---x----xx---x-|--5-5---2-2---11-11---0-0-----|



Guitar 1:

|--------------------------------------|------------------------------|
|--------------------------------------|------------------------------|
|-11/13-11~~11/13-11~~11/13-----8/9----|-11/13-11~~11/13-11~~11/13----|
|---------------------------13~~----9~~|---------------------------13~|
|--------------------------------------|------------------------------|
|--------------------------------------|------------------------------|
                     \_________________________________/
Guitar 2:                              |
                                       |
|--7--2--11--0--|\                     |
|--7--2--12--0--| |                    |
|--8--3--13--1--| |____________________| 
|--9--4--13--2--| |         Keep playing these two  
|--9--4--11--2--| |         Riffs till the song fades      
|--7--2--11--0--|/                     out

2. I won't give up

-----------------------------------------------------------------------------
                        I WON'T GIVE UP - Jason Mraz
-----------------------------------------------------------------------------


Tabbed by: Patrick Damian
E-Mail: pedamian@rocketmail.com

Based on his performance here:
http://www.youtube.com/watch?v=_KId5R_f-YI


Tuning: Drop D, CAPO 2nd Fret, All frets relative to Capo


Chords

   G         D         Bm         A       Asus       Em
|--x--|   |--2--|    |--2--|   |--0--|   |--0--|   |--0--|
|--x--|   |--3--|    |--3--|   |--2--|   |--3--|   |--0--|
|--4--|   |--2--|    |--4--|   |--2--|   |--2--|   |--0--|
|--4--|   |--0--|    |--4--|   |--2--|   |--2--|   |--2--|
|--5--|   |--0--|    |--2--|   |--0--|   |--0--|   |--2--|
|--5--|   |--x--|    |--x--|   |--x--|   |--x--|   |--2--|

  
   C         C#       A/D       F#
|--0--|   |--x--|   |--2--|   |--x--|
|--1--|   |--x--|   |--3--|   |--x--|
|--0--|   |--6--|   |--2--|   |-0h2-|
|--2--|   |--3--|   |--2--|   |--0--|
|--3--|   |--4--|   |--0--|   |--0--|
|--x--|   |--x--|   |--x--|   |--4--|



Intro and Verse:

e|----------------------------------------------------------------------|
B|----------------------------------------------------------------------|
G|-------------------4--4----2--2-----2--2------------------------------|
D|-0--0-0---2--4-----5--5----4--4-----4--4------------------------------| x3
A|----------------------------------------------------------------------|
D|-------------------0-------0-----0------------------------------------|

  When I look into your eyes..

e|----------------------------------------------------------------------|
B|------------3--3----3--2----------------------------------------------|
G|------------2--2----2--2----------------------------------------------|
D|-4--2--0----2--2----2--2----------------------------------------------| 
A|------------0-----0----0----------------------------------------------|
D|----------------------------------------------------------------------|
  
  ..There's so much they hold


Chorus:

                 G       D
               
I  won't  give  up  on  us

                Bm          A

Even  if  the  skies  get  rough

                  G         D

I'm  giving  you  all  my  love

                      A - Asus - A

I'm  still  looking  up


(Do 2nd Verse and 2nd Chorus with same Tabs and Chords as above)

........

                     A

God  knows  we're  worth  it
 
                     G

No,  I  won't  give  up



Bridge:

          Em

I  don't  wanna  be  someone  who  walks  away  so  easily

                                                       A/D

I'm  here  to  stay  and  make  the  difference  that  I  can  make

   Em

Our  differences  they  do  a  lot  to  teach  us  how  to  use

                                                  A/D

The  tools  and  gifts  we  got  yeah,  we  got  a  lot  at  stake

              C

And  in  the  end,  you're  still  my  friend  at  least  we  did  intend

                                                         C#

For  us  to  work  we  didn't  break,  we  didn't  burn

                                                                   C

We  had  to  learn  how  to  bend  without  the  world  caving  in

                                   C#                    (break)

I  had  to  learn  what  I've  got,  and  what  I'm  not

           D

And who I am


(Repeat 1st Chorus)


Extra Verse Lyrics: (Use Verse Tabs)

So easy is our lives
What's mine is yours and yours mine
Hardly do we ever fight
We'd rather be kind

Extra Chorus Lyrics: (Use Chorus Chords)

I won't give up on us
Even if the skies get dark
I'm healing this broken heart
And I know I'm worth it

I won't give up on us (no I'm not giving up)
God knows I'm tough, I am loved (I am tough, I am loved)
We've got a lot to learn (we're alive, we are loved)  
God knows we're worth it (God knows we're worth it)

No, I won't give up on us (no I'm not giving up)
God knows I'm tough enough (I am tough, I am loved)
We've got a lot to learn (we're alive, we are loved)  
And we're, and we're worth it (and we're worth it)

No, I won't give up

Outro:  G  D  F# (2x)
        G  D


That's all. Please don't forget to rate if you have the time.
Any comments, feedbacks, suggestions, would be greatly appreciated.
Remember to use the chords that I posted above at the beginning.
Thanks for viewing. Happy playing!



************************************

| /   slide up
| \   slide down
| h   hammer-on
| p   pull-off
| ~   vibrato
| +   harmonic
| x   Mute note
| b   Bend
| pb  Pre-bend
| br  Bend release
| pbr Pre-bend release
| brb Bend release bend

************************************
Valid XHTML 1.0! Valid CSS! powered by MoniWiki
last modified 2012-05-08 14:46:22
Processing time 0.0100 sec