FrontPage Music~DanFogelberg
Music »DanFogelberg

2. Leader Of The Band

This song was recently posted, but it was in a format not easy for me to
play.  If the previous post worked for you, you should stop reading this
post now.

Basically, I wanted to be able to play this song without memorizing it,
and my ear is real bad, and my girlfriend wants it and is just starting
to play, so it had to be real easy.  Chords are printed with every line,
 You can skip the chords in ( ), and I moved the chords to where they
 sound right, not where the music says.  (this is SIMP format)

.        Leader of the Band - Dan Fogelberg
.
.          Intro: G7 C Am Em D G (C/G) G (C/G) G (C/G) G
Verse:
G        (C/G)    G              Bm              C
An only child alone and wild, a cabinet maker's son
Am                        Em                    Am                 C    D
His hands were meant for different work and his heart was known to none.
G           (C/G)     G                Bm       C
He left his home and went his lone and solitary way
.      Am            Em     Am    D7            G   (C/G) G (C/G) G (C/G) G
And he gave to me a gift I know I never can repay
G      (C/G)   G         Bm             C
A quiet man of music, denied a simpler fate
Am                  Em                Am              C    D
He tried to be a soldier once but his music wouldn't wait
G      (C/G)    G                          Bm               C
He earned his love through discipline, a thund'ring velvet hand
.    Am              Em                      Am      D7      G
His gentle means of sculpting souls took me years to understand

 Chorus:
 .    C                  Bm                  C                 G
 .    The leader of the band is tired and his eyes are growing old
 .            Am                    Em                 Am            F    D
 .    But his blood runs through my instrument and his song is in my soul
 .    C                  Bm                  C                 G
 .    My life has been a poor attempt    to  imitate   the    man
 .      Am              Em           Am       C        G
 .  I'm just a living  legacy to the lea--der of-- the band

  .(C/G)  G  (C/G)  G  (C/G)  G

   G           (C/G)        G                 Bm             C
   My brothers' lives were different for they heard another call
   Am              Em        Am          C    D
   One went to Chicago, the other to St. Paul
   G          (C/G)  G          Bm             C
   And I'm in Colorado when I'm not in some hotel
   Am              Em               Am       D7      G   (C/G) G
   Living out this life I chose and come to know so well
   .        G7 C Am Em D7   G (C/G) G (C/G) G (C/G) G
   (no lyrics)
   G          (C/G)     G              Bm             C
   I thank you for the music and your stories of the road
   Am                    Em             Am             C    D
   I thank you for the freedom when it came my time to go
   G          (C/G)     G                Bm                 C
   I thank you for the kindness and the times when you got tough
   Am               Em               Am       D7      G
   And papa I don't think I said "I love you" near enough.
   .
   (Chorus followed by ending: )
   .               Am              Em           Am     C  D       G
   .             I am the living  legacy to the leader of    the band
   .                            (C/G)  G  (C/G)  G  (C/G)  G  G7 C Am Em D7 G
   .

leader of the band

intro:

|--------------0-|-----------------|---------------|---0-------------|
|-3--------3-----|---3---1---0-----|-1-------1-----|-3---3-1---0-----|
|-----0----------|---------------0-|-----0-------0-|---------------0-|
|---3--------3---|-----3-------0---|---2-------2---|-------------0---|
|-2--------------|-2-------0-------|-3-------------|-3---------------|
|-------3--------|-----------------|-------3-------|---------3-------|
            
                                                    <------2x-------> then 
|-------0-------|-----------------|-2---------------|---------3-----|
|-0h1-----1-----|-0-1-0-----------|-----3-----------|---0h1---------|
|-----------2---|-------0---0---0-|---2---0h2p0---0-|-------------0-|
|-----2-------2-|-------------2---|-0-----------4---|---0h2-----2---|
|-0-------------|-----------------|-----------------|---------------|
|---------------|-0-------0-------|-----------------|-3-----3-------|

|---------3---|----------------|
|---0h1-----1-|-0-------0------|
|-------------|-----0-------0--|
|---0h2-----2-|---0-------0----|
|-------------|----------------|
|-3-----3-----|-3-----3--------|

verses:

|-3-------------------------------|----------------|---------------|
|---0h1-------------0-------------|---------3------|---------1-----|
|---------0---0---------0---0---0-|-----4--------4-|-----0-------0-|
|---0h2-----0---------0-------0---|---4--------4---|---2-------2---|
|---------------------------------|-2--------------|-3-------------|
|-3-----3--------3--------3-------|-------2--------|-------3-------|

                                <-------------1st time------------->
|---------------|-------0-------|---------------|------------2-----|
|-0-------1-----|---3-------3---|---------1-----|---1--------------|
|-----2-------2-|---------------|-----2-------2-|-------0------2-0-|
|---2-------2---|-----2-------2-|---2-------2---|-----2----0-------|
|-0-------------|---------------|-0-----0-------|-3----------------|
|-------0-------|-0-------0-----|---------------|------------------|

<--------------2nd time----------->
|------------2-----|--------------|
|---1--------------|---0---0--1-3-|
|-------2------2-0-|--------------|
|-----2------------|--------------|
|-0-------0--------|-----0----0-2-|
|------------------|-3------------|

|-0-------------|---------------|---------------|-------------|
|-1-------1-----|---------3-----|---------1-----|---0---0-1-3-|
|-----0-------0-|-----4-------4-|-----0-------0-|-------------|
|---2-------2---|---4-------4---|---2-------2---|-------------|
|-3-------------|-2-------------|-3-------------|-----0---0-2-|
|-------3-------|-------2-------|-------3-------|-3-----------|
                                  <--------------1st time----------->
|-----------------|-------0-------|---------------|---1-------------|
|-1--------1------|---3-------3---|-1-------1-----|-----------3-----|
|-----2---------2-|---------------|-----2-------2-|-------2---------|
|---2---------2---|-----2-------2-|---2-------2---|-----3---0---2-0-|
|-0---------------|---------------|-0-------------|-----------------|
|--------0--------|-0-------0-----|-------0-------|-1---------------|


|-----------------|---------3-----|---------3---|---------------|
|---1-------1-----|---0h1---------|---0h1-----1-|-0-------0-----|
|-------2-------0-|-------------0-|-------------|-----0-------0-|
|-----2-------2---|---0h2-----2---|---0h2-----2-|---0-------0---|
|-0-------3-------|---------------|-------------|---------------|
|-----------------|-3-----3-------|-3-----3-----|-3-----3-------|

outro:

|--------------0-|-----------------|---------------|---0-------------|
|-3--------3-----|---3---1---0-----|-1-------1-----|-3---3-1---0-----|
|-----0----------|---------------0-|-----0-------0-|---------------0-|
|---3--------3---|-----3-------0---|---2-------2---|-------------0---|
|-2--------------|-2-------0-------|-3-------------|-3---------------|
|-------3--------|-----------------|-------3-------|---------3-------|
            
                                                    
|-------0-------|-----------------|-2---------------|---------1-----|
|-0h1-----1-----|-0-1-0-----------|-----3-----------|-------0-------|
|-----------2---|-------0---0---0-|---2---0h2p0---0-|-----0---------|
|-----2-------2-|-------------2---|-0-----------4---|---0-----------|
|-0-------------|-----------------|-----------------|---------------|
|---------------|-0-------0-------|-----------------|-3-------------|

order of song
intro
verse 1
verse 2
chorus
verse 3
intro
verse 4 
chorus
outro

kayo na bhala sa sequence ng kanta..

Leader of the band      
(Dan Fogelberg)
tabbed by: mark Lavalle
www.mark_des22@yahoo.com


(intro)

|-----------------|-0---------------|-----------------|
|-3---------3-----|---3---1---0-----|-1---------1-----|
|-------0-------0-|-----------------|-------0-------0-|
|-----3-------3---|-----3-------3---|-----2-------2---|
|-----------------|-----------------|-3---------------|
|-3-------3-------|-3-------0-------|---------3-------|
  1   2   3   4     1   2   3   4     1   2   3   4

      (p)
|---0-------------|-----------0-----|-----------0-----|
|-3---3-1---------|-------1-------1-|-0-----0-------0-|
|-----------0-----|-----2-------2---|-----0-------0---|
|-----------------|-----------------|---2-------------|
|-3-------3---2---|-0---------------|-----------------|
|-----------------|---------0-------|-0-------0-------|
  1   2   3   4     1   2   3   4     1   2   3   4

                        (h)               (h)
|-2----------------|-----------3-----|-----------3-----|
|-----3------------|-----0-1-----1---|-----0-1-----1---|
|---2---0h2p0---0--|---------------0-|---0-----------0-|
|-0-----------4----|-----0-2---------|-----0-2---------|
|------------------|-----------------|-----------------|
|------------------|-3-------3-------|-3-------3-------|
  1   2   3   4     1   2   3   4     1   2   3   4

      (h)
|-----------3-----|-----------------||
|-----0-1-----1---|-0---------0-----||
|---------------0-|-------0-------0-||
|-----0-2---------|-----0-------0---||
|-----------------|-----------------||
|-3-------3-------|-3-------3-------||
  1   2   3   4     1   2   3   4



(Verse pattern)

|-----------------|-----------3-----|-----------2-----|
|-------0-1-----0-|-------0-------0-|-3-----3-----3---|
|-----0-------0---|-----0-------0---|-----4---------4-|
|---0-------2-----|---0-------------|---4-------------|
|-----------------|-----------------|-2---------------|
|-3-------3-------|-3-------3-------|---------2-------|
  1   2   3   4     1   2   3   4     1   2   3   4
 An only child  a- lone and wild,  a cabinet maker's
He left his...   ..went his lone and so  -   l-i- tary

|-----------0-----|-----------0-----|-----------0-----|
|-1-----1-----1---|-------1-----1---|-0-----0-----0---|
|-----0---------0-|-----2---------2-|-----0---------0-|
|---2-------------|---2-------------|---2-------------|
|-3---------------|-0---------------|-----------------|
|---------3-------|---------0-------|-0-------0-------|
  1   2   3   4     1   2   3   4     1   2   3   4
 son                 his hands...   ..different work and his
 way                  he gave to me a gift I know  I


(1st time)

|-----------0-----|---------------2-||
|-------1-----1---|-------1-----3---||
|-----2---------2-|-----0-----2-----||
|---2-------------|---2-----0-------||
|-0---------------|-3---------------||
|---------0-------|-----------------||
  1   2   3   4     1   2   3   4
 heart was known to none


(2nd time)
                        (h)               (h)
|---------------2-|-----------3-----|-----------3-----|
|-1-----1-----1---|-----0-1-----1---|-----0-1-----1---|
|-----2-----2-----|---0-----------0-|---------------0-|
|---2-----0-------|-----0-2---------|-----0-2---------|
|-0---------------|-----------------|-----------------|
|-----------------|-3-------3-------|-3-------3-------|
  1   2   3   4     1   2   3   4     1   2   3   4
 never   can  re-  pay

      (h)
|-----------3-----|-----------3-----||
|-----0-1-----1---|-0-----0-----0---||
|---0-----------0-|-----0---------0-||
|-----0-2---------|---0-------------||
|-----------------|-----------------||
|-3-------3-------|-3-------3-------||
  1   2   3   4     1   2   3   4
                                       (on to verse 2...)

(Verse 1)
G        C/g     G               Bm              C
 An only child alone and wild, a cabinet-maker's son
Am                        Em
  His hands were meant for different work and his
Am                  C   D7
heart was known to none
G             C/g      G                 Bm        C
  He left his home and went his lone and solitary way
Am                Em            Am    D7     G
  He gave to me a gift I know I never can repay


(Verse 2)
G         C/g     G        Bm             C
  A quiet man of music, denied a simpler fate
Am                 Em
  He tried to be a soldier once, but his
Am              C   D7
music wouldn't wait
G               C/g           G            Bm                 C
  He earned his love through discipline, a thund'ring velvet hand
Am                    Em                      Am       D7     G
  His gentle means of sculpting souls took me years to understand
                                                      (to chorus)


|---------------2-|-----------------|-----
|-------1-----1---|-------0-1---3---|-----
|-----2-----2-----|-----0-----------|-----
|---2-----0-------|---0-------------|-----
|-0---------------|---------0---2---|-----
|-----------------|-3---------------|-----
  1   2   3   4     1   2   3   4
..years 2 un-der- stand


(Chorus)
  C                 Bm7               C
|-----------------|-----------------|-----------------|
|-1-----1-----1---|-------3-----3---|-------1-----1---|
|-----0-----0---0-|-----2-----2---2-|-----0-----0---0-|
|---2-----2-------|---4-----4-------|---2-----2-------|
|-3---------------|-2---------------|-3---------------|
|-----------------|-----------------|-----------------|
  1   2   3   4     1   2   3   4     1   2   3   4
 The leader of the band is tired & his eyes are growing
  My life has been a poor attempt       to imitate the

  G                Am                Em
|-----------3-----|-----------------|-----------0-----|
|-------0-------0-|-------1-----1---|-0-----0-------0-|
|-----0-------0---|-----2-----2---2-|-----0-------0---|
|---0-------------|---2-----2-------|---2-------------|
|-----------------|-0---------------|-----------------|
|-3-------3-------|-----------------|-0-------0-------|
  1   2   3   4     1   2   3   4     1   2   3   4
 old        but his blood runs thru my instrument & his
 man           I'm just   a  living  leg - a - cy to the

(1st time)
 Am                 F       D
|-----------0-----|-1-----1-2-----2-|-----------------|
|-1-----1-------1-|-----1-------3---|-----------------|
|-----2-------2---|---2-------2-----|-----------------|
|---2-------------|-3-------0-------|-----------------|
|-0---------------|-----------------|-----------------|
|---------0-------|-----------------|-----------------|
  1   2   3   4     1   2   3   4     1   2   3   4
 song  is in my   soul


(2nd time)        (**)
 Am       C         G
                        (h)               (h)
|-----------------|-----------3-----|-----------3-----|
|-------1-------1-|-----0-1-----1---|-----0-1-----1---|
|-----2-------0---|---------------0-|---------------0-|
|---2-------2-----|-----0-2---------|-----0-2---------|
|-0-------3-------|-----------------|-----------------|
|-----------------|-3-------3-------|-3-------3-------|
  1   2   3   4     1   2   3   4     1   2   3   4
 leader  of    the band

      (h)
|-----------3-----|-----------3-----||
|-----0-1-----1---|-0-----0-----0---||
|---------------0-|-----0---------0-||
|-----0-2---------|---0-------------||
|-----------------|-----------------||
|-3-------3-------|-3-------3-------||
  1   2   3   4     1   2   3   4

**(After the last verse, go to ending at this point in the
chorus)



(Verse 3)
G              C/g         G                   Bm           C
  My brother's lives were different, for they heard another call
Am               Em
  One went to Chicago, a-
Am               C   D7
  nother to St. Paul
G            C/g  G            Bm             C
  Me, I'm in Colorado when I'm not in some motel
Am                Em                    Am       D7      G
  living out this life I chose and have come to know so well


(Play intro, then on to...)


(Verse 4)
G             C/g     G               Bm             C
  I thank you for the music and your stories of the road
Am                     Em
  I thank you for the freedom... when it
Am              C  D7
came my time to go
G             C/g      G                Bm                 C
  I thank you for the kindness and the times when you got tough
     Am             Em             Am        D7      G
and, Papa, I don't think I said "I love you" near enough
                                                   (to chorus)



(Ending)

|-----------3-----|-----------0-----|-----------0-----|
|-------0-------0-|-------1-----1---|-0-----0-------0-|
|-----0-------0---|-----2---------2-|-----2-------2---|
|---0-------------|---2-------------|---2-------------|
|-----------------|-0---------------|-----------------|
|-3-------3-------|---------0-------|-0-------0-------|
  1   2   3   4     1   2   3   4     1   2   3   4
              I     am   a  li- ving leg -a - cy to the

                                          (h)
|-----------0-----|---------------2-|-----------3-----|
|-------1-------1-|-------1-----1---|-----0-1-----1---|
|-----2-------2---|-----0-----2-----|---0-----------0-|
|---2-------------|---2-----0-------|-----0-2---------|
|-0---------------|-3---------------|-----------------|
|---------0-------|-----------------|-3-------3-------|
  1   2   3   4     1   2   3   4     1   2   3   4
 lea   -     der    of           the band

      (h)               (h)
|-----------3-----|-----------3-----|-----------3-----|
|-----0-1-----1---|-----0-1-----1---|-0-----0-----0---|
|---------------0-|---0-----------0-|-----0---------0-|
|-----0-2---------|-----0-2---------|---0-------------|
|-----------------|-----------------|-----------------|
|-3-------3-------|-3-------3-------|-3-------3-------|
  1   2   3   4     1   2   3   4     1   2   3   4


|-----------------|-0---------------|-----------------|
|-3---------3-----|---3---1---0-----|-1---------1-----|
|-------0-------0-|-----------------|-------0-------0-|
|-----3-------3---|-----3-------3---|-----2-------2---|
|-----------------|-----------------|-3---------------|
|-3-------3-------|-3-------0-------|---------3-------|
  1   2   3   4     1   2   3   4     1   2   3   4

      (p)
|---0-------------|-----------0-----|-----------0-----|
|-3---3-1---------|-------1-------1-|-0-----0-------0-|
|-----------0-----|-----2-------2---|-----0-------0---
|-----------------|-----------------|---2-------------|
|-3-------3---2---|-0---------------|-----------------|
|-----------------|---------0-------|-0-------0-------|
  1   2   3   4     1   2   3   4     1   2   3   4

|-2-----2-----2---|-3-------3-------||
|---3-----3-----3-|-------0---------||
|-----2-----2-----|-----0-----------||
|-0---------------|---0-------------||
|-----------------|-----------------||
|-----------------|-3---------------||
  1   2   3   4     1   2   3   4

listen lang kyo sa song para malaman nyo ang timming.
masyadong mabilis na kanta to.. hindi to makuha sa isahang ensayo lang.
cge, enjoy....

An only child
Alone and wild
A cabinet makers son
His hands were meant
For different work
And his heart was known
To none --
He left his home
And went his lone
And solitary way
And he gave to me
A gift I know I never
Can repay

A quiet man of music
Denied a simpler fate
He tried to be a soldier once
But his music wouldnt wait
He earned his love
Through discipline
A thundering, velvet hand
His gentle means of sculpting souls
Took me years to understand.

The leader of the band is tired
And his eyes are growing old
But his blood runs through
My instrument
And his song is in my soul --
My life has been a poor attempt
To imitate the man
Im just a living legacy
To the leader of the band.

My brothers lives were
Different
For they heard another call
One went to chicago
And the other to st. paul
And Im in colorado
When Im not in some hotel
Living out this life Ive chose
And come to know so well.

I thank you for the music
And your stories of the road
I thank you for the freedom
When it came my time to go --
I thank you for the kindness
And the times when you got tough
And, pap, I dont think i
Said i love you near enough --

The leader of the band is tired
And his eyes are growing old
But his blood runs through
My instrument
And his song is in my soul --
My life has been a poor attempt
To imitate the man
Im just a living legacy
To the leader of the band
I am the living legacy
To the leader of the band.

Song       :  Leader of the Band
Singer     :  Dan Fogelberg
Tabbed by  :  Robert Simon Uy!!!!

----------------------------------------------------------------------------
| ------------------------------------------------------------------------ |
| |                                                                      | |
| |                        RaTe this tab.. hehe..                        | |
| |                 Plsss rate this tab.. coment dn po..                 | |
| |                                                                      | |
| ------------------------------------------------------------------------ |
----------------------------------------------------------------------------

Edit:
completed the song..
deleted some notes
added new tab for guitar w/ a 2 fret higher tune.

Note:
I added this new tab :
1.)because I saw in a video that Dan Fogelberg used G as he's 1rst chord. 
So, I knew that a 2-fret higher guitar is used in playing this 
2.)to make it easier

Tuning : F#C#AEBF#(2 FRETS higher than standard)

  G                           C
|-------------0-------------|---------------0---------|
|---------3-------3---1---0-|-1-------1---3---3-1---0-|
|-0---0---------------------|-----0-------------------|
|-0-0-------0-------0-------|---2---------------------|
|-2-------------------------|-3-----------3-----------|
|-3-----3-------3-------3---|-------3-------------3---|

|-------0--------------------------2---------|
|-1--------1------0--------------3-----------|
|---2--------2--2---2-0--------2-----0h2---0-|
|------------------------2-4-2-----------4---|
|-0-------------0----------------------------|
|-----0--------------------------------------|

       2x                      VERY LOW Volume
<-------------->                 <--------->
|--------3-----|--------3--------------3-----|
|----0-1---1---|----0-1------------0-----0---|
|------------0-|-----------------0---------0-|
|----0-2-------|----0-2---0-2-0------0-------|
|--------------|-----------------------------|
|-3------------|-3---------------------------|

Verse:

|----------3-------3-------3---|-----------2---|-----------0---|
|-----0-1----1-------1-------1-|-------3-----3-|-------------0-|
|---0----------0-------0-------|-----4---------|-------0-------|
|-0-----2--------2-------2-----|---4-----------|-----2---------|
|------------------------------|-2-------------|---2-----------|
|------------------------------|---------2-----|-0-------0-----|

|-----------0----|-----------0---|-----------0---|---------|-----2---|
|-------1-----1--|-------------0-|-------1-----1-|-------1-|---------|
|-----2----------|-------0-------|-----2---------|-----0---|---2---2-|
|---2------------|-2---2---------|---2-----------|---2-----|-0-------|
|-0--------------|---2-----------|-0-------------|-3-------|---------|
|---------0------|---------0-----|---------0-----|---------|---------|

|----------3-------3-------3---|-----------2---|-----------0---|
|-----0-1----1-------1-------1-|-------3-----3-|-------------0-|
|---0----------0-------0-------|-----4---------|-------0-------|
|-0-----2--------2-------2-----|---4-----------|-----2---------|
|------------------------------|-2-------------|---2-----------|
|------------------------------|---------2-----|-0-------0-----|

|-----------0----|-----------0---|---------|-----2---|
|-------1-----1--|-------------0-|-------1-|---------|
|-----2----------|-------0-------|-----2---|---2--(2)|
|---2------------|-2---2---------|---2-----|-0-------|
|-0--------------|---2-----------|-0-------|---------|
|---------0------|---------0-----|---------|---------|

(THEN)
       2x                      VERY LOW Volume
<-------------->                 <--------->
|--------3-----|--------3--------------3-----|
|----0-1---1---|----0-1------------0-----0---|
|------------0-|-----------------0---------0-|
|----0-2-------|----0-2---0-2-0------0-------|
|--------------|-----------------------------|
|-3------------|-3---------------------------|

<----------REPEAT VERSE EXCEPT THIS---------->

(THEN)
  
e|-------------------|
B|-----------0--1--3-|
G|-0-----------------|
D|-------------------|
A|---(2)-(2)-2--3--5-|
E|-------------------|

Chorus:

   C                Bm7              C
e|-0--------0-----|----------2-----|----------0-----|-----------------|
B|----------------|-3----------3---|-1----------1---|---------0--1--3-|
G|------0-------0-|------2-------2-|------0-------0-|-----------------|
D|-2--2-------2---|----4-----------|----2-----------|-----------------|
A|--------3-------|-2------2-------|-3------3-------|-(2)-(2)-2--3--5-|
E|----------------|----------------|----------------|-----------------|

   C                Am7              Em             C         D
e|-0--------0-----|-------0--------|-------0------|---------|-----2---|
B|----------------|-1--------1-----|----------0---|-------1-|---------|
G|------0-------0-|---0--------0---|------------0-|-----0---|---2---2-|
D|-2--2-------2---|-----2----------|-----2--------|---2-----|-0-------|
A|--------3-------|-0--------------|---2----------|-3-------|---------|
E|----------------|----------------|-0------------|---------|---------|

********************not yet done.. plss wait for updates********************

----------------------------------------------------------------------------
----------------------------------------------------------------------------

If you don't want to play this song in a diff. tuning, then use this.......

Tuning : EBGDAE(standard)

*******THOSE INSIDE THE PARENTHESIS() ARE OPTIONAL********
Intro:

   A                          D
e|-0-----------2---0--------|-------------0-2-0--------|
B|-2-------2----------3---2-|-3-------3----------3---2-|
G|-2---2--------------------|-----2--------------------|
D|-2-2-------2----------2---|-0-----0-----0------------|
A|-0-----0-------0----------|---0------------------0---|
E|--------------------------|--------------------------|

   Bm
e|-------2-------------------------------|
B|-3--------3------2---------------------|
G|---4--------4--4---4-2-----------------|
D|------------------------2-4-2--7h9-6-7-|
A|-2-------------2-----------------------|
E|-----2---------------------------------|

       2x                      VERY LOW VOLUME
<--------------->                <--------->
e|--------5-----|--------5-------------5-----|
B|----------5---|------------------------5---|
G|----6-7-----6-|----6-7-----------6-------6-|
D|------7-------|------7---------7-----------|
A|----7---------|----7-----7-9-7-----7-------|
E|-5------------|-5--------------------------|

Verse:

   A                                C#m             F#m
e|----------5-----5-----5-----|-----------4---|-----------2---|
B|-----5------5-----5-----5---|-------5-----5-|-------------2-|
G|---6----------------6-----6-|(6)--6---------|(2)----2-------|
D|----------------------------|---6-----------|-----4---------|
A|-7-----9------7-------7-----|-4-------------|---4-----------|
E|----------------------------|---------4-----|-2-------2-----|

   Bm              F#m             Bm              D         E
e|-----------2---|-----------2---|-----------2---|---------|---------|
B|-------3-----3-|-------------2-|-------3-----3-|-------7-|-----9---|
G|-----4---------|-------2-------|-----4---------|-----7---|-------9-|
D|---4-----------|-4---4---------|---4-----------|---7-----|---9-----|
A|-2-------------|---4-----------|-2-------------|-5-------|-7-------|
E|---------2-----|---------2-----|---------2-----|---------|---------|

   A                                C#m             F#m
e|----------5-----5-----5-----|-----------4---|-----------2---|
B|-----5------5-----5-----5---|-------5-----5-|-------------2-|
G|---6----------------6-----6-|(6)--6---------|(2)----2-------|
D|----------------------------|---6-----------|-----4---------|
A|-7-----9------7-------7-----|-4-------------|---4-----------|
E|----------------------------|---------4-----|-2-------2-----|

   Bm              F#m             Bm        D
e|-----------2---|-----------2---|---------|-----2---|
B|-------3-----3-|-------------2-|-------3-|---3---3-|
G|-----4---------|-------2-------|-----4---|-2-------|
D|---4-----------|-4---4---------|---4-----|---------|
A|-2-------------|---4-----------|-2-------|---------|
E|---------2-----|---------2-----|---------|---------|

(THEN)
       2x                      VERY LOW VOLUME
<--------------->                <--------->
e|--------5-----|--------5-------------5-----|
B|----------5---|------------------------5---|
G|----6-7-----6-|----6-7-----------6-------6-|
D|------7-------|------7---------7-----------|
A|----7---------|----7-----7-9-7-----7-------|
E|-5------------|-5--------------------------|

<----------REPEAT VERSE EXCEPT THIS---------->

(THEN)
  
e|-----------|
B|-----------|
G|---6--7--9-|
D|-----------|
A|-4-4--5--7-|
E|-----------|

CHORUS:

   D                C#m7             D
e|-2--------2-----|----------4-----|----------2-----|-----------|
B|------3-------3-|-5----------5---|-3----3-----3---|-----------|
G|----2-------2---|------4-------4-|----2---------2-|---6--7--9-|
D|-0------0-------|----6-----------|-0------0-------|
A|----------------|-4------4-------|----------------|-4-4--5--7-|
E|----------------|----------------|----------------|-----------|

   D                Bm7            F#m            D
e|-2--------2-----|-------2------|-------2------|-----2---|-----4---|
B|------3-------3-|-3--------3---|----------2---|---3---3-|---5---5-|
G|----2-------2---|---2--------2-|------------2-|-2-------|-4-------|
D|-0------0-------|-----4--------|-----4--------|---------|---------|
A|----------------|-2------------|---4----------|---------|---------|
E|----------------|--------------|-2------------|---------|---------|

   D                C#m7             D
e|-2--------2-----|----------4-----|----------2-----|-----------|
B|------3-------3-|-5----------5---|-3----3-----3---|-----------|
G|----2-------2---|------4-------4-|----2---------2-|---6--7--9-|
D|-0------0-------|----6-----------|-0------0-------|-----------|
A|----------------|-4------4-------|----------------|-4-4--5--7-|
E|----------------|----------------|----------------|-----------|

   D                Bm7            F#m     E
e|-2--------2-----|-------2------|---2---|---0---|
B|------3-------3-|-3--------3---|-----2-|-----0-|
G|----2-------2---|---2--------2-|-------|-------|
D|-0------0-------|-4------------|-4-----|-2-----|
A|----------------|-----2--------|-------|-------|
E|----------------|--------------|-------|-------|

(THEN)
       2x                      VERY LOW VOLUME
<--------------->                <--------->
e|--------5-----|--------5-------------5-----|
B|----------5---|------------------------5---|
G|----6-7-----6-|----6-7-----------6-------6-|
D|------7-------|------7---------7-----------|
A|----7---------|----7-----7-9-7-----7-------|
E|-5------------|-5--------------------------|
 
------------------
| -------------- |
| |REPEAT VERSE| |
| -------------- |
------------------

(THEN)
       2x
<--------------->
e|--------5-----|
B|----------5---|
G|----6-7-----6-|
D|------7-------|
A|----7---------|
E|-5------------|

------------------
| -------------- |
| |REPEAT INTRO| |
| -------------- |
------------------

------------------
| -------------- |
| |REPEAT VERSE| |
| -------------- |
------------------

(THEN)
  
e|-----------|
B|-----------|
G|---6--7--9-|
D|-----------|
A|-4-4--5--7-|
E|-----------|

LAST CHORUS:

   D                C#m7             Bm7
e|-2--------2-----|----------4-----|---------2-----|-----------|
B|------3-------3-|-5----------5---|-3---------3---|-----------|
G|----2-------2---|------4-------4-|-----2-------2-|---6--7--9-|
D|-0------0-------|----6-----------|---4-----------|-----------|
A|----------------|-4------4-------|-2-----2-------|-4-4--5--7-|
E|----------------|----------------|---------------|-----------|

   D                Bm7            F#m            D
e|-2--------2-----|-------2------|-------2------|-----2---|-----4---|
B|------3-------3-|-3--------3---|----------2---|---3---3-|---5---5-|
G|----2-------2---|---2--------2-|------------2-|-2-------|-4-------|
D|-0------0-------|-----4--------|-----4--------|---------|---------|
A|----------------|-2------------|---4----------|---------|---------|
E|----------------|--------------|-2------------|---------|---------|

   D                C#m7             Bm7
e|-2--------2-----|----------4-----|---------2-----|-----------|
B|------3-------3-|-5----------5---|-3---------3---|-----------|
G|----2-------2---|------4-------4-|-----2-------2-|---6--7--9-|
D|-0------0-------|----6-----------|---4-----------|-----------|
A|----------------|-4------4-------|-2-----2-------|-4-4--5--7-|
E|----------------|----------------|---------------|-----------|

   D                Bm7            F#m     E
e|-2--------2-----|-------2------|---2---|---0---|-------------0-|
B|------3-------3-|-3--------3---|-----2-|-----0-|-----2---3-----|
G|----2-------2---|---2--------2-|-------|-------|---------------|
D|-0------0-------|-4------------|-4-----|-2-----|---2---2---2---|
A|----------------|-----2--------|-------|-------|-0-------------|
E|----------------|--------------|-------|-------|---------------|

   D                Bm7            F#m            E
e|-2--------2-----|-------2------|-------2------|---0-----0-----|
B|------3-------3-|-3--------3---|---2------2---|-----0-----0---|
G|----2-------2---|---2--------2-|-----2------2-|-------------1-|
D|-0------0-------|-4------------|-4------------|-2-----2-------|
A|----------------|-----2--------|--------------|---------------|
E|----------------|--------------|--------------|---------------|

(THEN)
       2x
<--------------->
e|--------5-----|--------5-------|
B|----------5---|----------------|
G|----6-7-----6-|----6-7---------|
D|------7-------|------7---------|
A|----7---------|----7-----7-9-7-|
E|-5------------|-5--------------|

OUTRO:

   A                          D
e|-0-----------2---0--------|-------------0-2-0--------|
B|-2-------2----------3---2-|-3-------3----------3---2-|
G|-2---2--------------------|-----2--------------------|
D|-2-2-------2----------2---|-0-----0-----0------------|
A|-0-----0-------0----------|---0------------------0---|
E|--------------------------|--------------------------|

   Bm
e|-------2---------------------------------------|
B|-3--------3------2-----------------------------|
G|---4--------4--4---4-2-------------------------|
D|------------------------2-4-2--7h9-6-7---------|
A|-2-------------2------------------------+12----|
E|-----2-------------------------------------+12-|

------------------------------------EnD-------------------------------------
| ------------------------------------------------------------------------ |
| |                    RaTe     nYo     pOh     ito...                   | |
| |                     Hi  to  all  Naguenian!!!!..                     | |
| ------------------------------------------------------------------------ |
----------------------------------------------------------------------------
         ©Copyright2007©       Robert Simon Uy™        ®Registered®		

Valid XHTML 1.0! Valid CSS! powered by MoniWiki
last modified 2012-05-08 14:46:21
Processing time 0.0211 sec